  0
SECTION
  2
HEADER
  9
$ACADVER
  1
AC1015
  9
$ACADMAINTVER
 70
    20
  9
$DWGCODEPAGE
  3
ANSI_1250
  9
$INSBASE
 10
0.0
 20
0.0
 30
0.0
  9
$EXTMIN
 10
831.9568841565596
 20
511.0231829518429
 30
-0.0000000000112498
  9
$EXTMAX
 10
1085.428313444896
 20
687.8383686721954
 30
0.0000000000002956
  9
$LIMMIN
 10
0.0
 20
0.0
  9
$LIMMAX
 10
420.0
 20
297.0
  9
$ORTHOMODE
 70
     0
  9
$REGENMODE
 70
     1
  9
$FILLMODE
 70
     1
  9
$QTEXTMODE
 70
     0
  9
$MIRRTEXT
 70
     0
  9
$LTSCALE
 40
1.0
  9
$ATTMODE
 70
     1
  9
$TEXTSIZE
 40
2.5
  9
$TRACEWID
 40
1.0
  9
$TEXTSTYLE
  7
Standard
  9
$CLAYER
  8
Srafy
  9
$CELTYPE
  6
ByLayer
  9
$CECOLOR
 62
   256
  9
$CELTSCALE
 40
1.0
  9
$DISPSILH
 70
     0
  9
$DIMSCALE
 40
1.0
  9
$DIMASZ
 40
2.5
  9
$DIMEXO
 40
0.625
  9
$DIMDLI
 40
3.75
  9
$DIMRND
 40
0.0
  9
$DIMDLE
 40
0.0
  9
$DIMEXE
 40
1.25
  9
$DIMTP
 40
0.0
  9
$DIMTM
 40
0.0
  9
$DIMTXT
 40
2.5
  9
$DIMCEN
 40
2.5
  9
$DIMTSZ
 40
0.0
  9
$DIMTOL
 70
     0
  9
$DIMLIM
 70
     0
  9
$DIMTIH
 70
     0
  9
$DIMTOH
 70
     0
  9
$DIMSE1
 70
     0
  9
$DIMSE2
 70
     0
  9
$DIMTAD
 70
     1
  9
$DIMZIN
 70
     8
  9
$DIMBLK
  1

  9
$DIMASO
 70
     1
  9
$DIMSHO
 70
     1
  9
$DIMPOST
  1

  9
$DIMAPOST
  1

  9
$DIMALT
 70
     0
  9
$DIMALTD
 70
     3
  9
$DIMALTF
 40
0.03937007874016
  9
$DIMLFAC
 40
1.0
  9
$DIMTOFL
 70
     1
  9
$DIMTVP
 40
0.0
  9
$DIMTIX
 70
     0
  9
$DIMSOXD
 70
     0
  9
$DIMSAH
 70
     0
  9
$DIMBLK1
  1

  9
$DIMBLK2
  1

  9
$DIMSTYLE
  2
ISO-25
  9
$DIMCLRD
 70
     0
  9
$DIMCLRE
 70
     0
  9
$DIMCLRT
 70
     0
  9
$DIMTFAC
 40
1.0
  9
$DIMGAP
 40
0.625
  9
$DIMJUST
 70
     0
  9
$DIMSD1
 70
     0
  9
$DIMSD2
 70
     0
  9
$DIMTOLJ
 70
     0
  9
$DIMTZIN
 70
     8
  9
$DIMALTZ
 70
     0
  9
$DIMALTTZ
 70
     0
  9
$DIMUPT
 70
     0
  9
$DIMDEC
 70
     2
  9
$DIMTDEC
 70
     2
  9
$DIMALTU
 70
     2
  9
$DIMALTTD
 70
     3
  9
$DIMTXSTY
  7
Standard
  9
$DIMAUNIT
 70
     0
  9
$DIMADEC
 70
     0
  9
$DIMALTRND
 40
0.0
  9
$DIMAZIN
 70
     0
  9
$DIMDSEP
 70
    44
  9
$DIMATFIT
 70
     3
  9
$DIMFRAC
 70
     0
  9
$DIMLDRBLK
  1

  9
$DIMLUNIT
 70
     2
  9
$DIMLWD
 70
    -2
  9
$DIMLWE
 70
    -2
  9
$DIMTMOVE
 70
     0
  9
$LUNITS
 70
     2
  9
$LUPREC
 70
     4
  9
$SKETCHINC
 40
1.0
  9
$FILLETRAD
 40
0.0
  9
$AUNITS
 70
     0
  9
$AUPREC
 70
     0
  9
$MENU
  1
.
  9
$ELEVATION
 40
0.0
  9
$PELEVATION
 40
0.0
  9
$THICKNESS
 40
0.0
  9
$LIMCHECK
 70
     0
  9
$CHAMFERA
 40
0.0
  9
$CHAMFERB
 40
0.0
  9
$CHAMFERC
 40
0.0
  9
$CHAMFERD
 40
0.0
  9
$SKPOLY
 70
     0
  9
$TDCREATE
 40
2454570.942113322
  9
$TDUCREATE
 40
2454570.858779988
  9
$TDUPDATE
 40
2454580.086180914
  9
$TDUUPDATE
 40
2454580.002847581
  9
$TDINDWG
 40
0.0994375579
  9
$TDUSRTIMER
 40
0.0994344792
  9
$USRTIMER
 70
     1
  9
$ANGBASE
 50
0.0
  9
$ANGDIR
 70
     0
  9
$PDMODE
 70
     0
  9
$PDSIZE
 40
0.0
  9
$PLINEWID
 40
0.0
  9
$SPLFRAME
 70
     0
  9
$SPLINETYPE
 70
     6
  9
$SPLINESEGS
 70
     8
  9
$HANDSEED
  5
CBC
  9
$SURFTAB1
 70
     6
  9
$SURFTAB2
 70
     6
  9
$SURFTYPE
 70
     6
  9
$SURFU
 70
     6
  9
$SURFV
 70
     6
  9
$UCSBASE
  2

  9
$UCSNAME
  2

  9
$UCSORG
 10
0.0
 20
0.0
 30
0.0
  9
$UCSXDIR
 10
1.0
 20
0.0
 30
0.0
  9
$UCSYDIR
 10
0.0
 20
1.0
 30
0.0
  9
$UCSORTHOREF
  2

  9
$UCSORTHOVIEW
 70
     0
  9
$UCSORGTOP
 10
0.0
 20
0.0
 30
0.0
  9
$UCSORGBOTTOM
 10
0.0
 20
0.0
 30
0.0
  9
$UCSORGLEFT
 10
0.0
 20
0.0
 30
0.0
  9
$UCSORGRIGHT
 10
0.0
 20
0.0
 30
0.0
  9
$UCSORGFRONT
 10
0.0
 20
0.0
 30
0.0
  9
$UCSORGBACK
 10
0.0
 20
0.0
 30
0.0
  9
$PUCSBASE
  2

  9
$PUCSNAME
  2

  9
$PUCSORG
 10
0.0
 20
0.0
 30
0.0
  9
$PUCSXDIR
 10
1.0
 20
0.0
 30
0.0
  9
$PUCSYDIR
 10
0.0
 20
1.0
 30
0.0
  9
$PUCSORTHOREF
  2

  9
$PUCSORTHOVIEW
 70
     0
  9
$PUCSORGTOP
 10
0.0
 20
0.0
 30
0.0
  9
$PUCSORGBOTTOM
 10
0.0
 20
0.0
 30
0.0
  9
$PUCSORGLEFT
 10
0.0
 20
0.0
 30
0.0
  9
$PUCSORGRIGHT
 10
0.0
 20
0.0
 30
0.0
  9
$PUCSORGFRONT
 10
0.0
 20
0.0
 30
0.0
  9
$PUCSORGBACK
 10
0.0
 20
0.0
 30
0.0
  9
$USERI1
 70
     0
  9
$USERI2
 70
     0
  9
$USERI3
 70
     0
  9
$USERI4
 70
     0
  9
$USERI5
 70
     0
  9
$USERR1
 40
0.0
  9
$USERR2
 40
0.0
  9
$USERR3
 40
0.0
  9
$USERR4
 40
0.0
  9
$USERR5
 40
0.0
  9
$WORLDVIEW
 70
     1
  9
$SHADEDGE
 70
     3
  9
$SHADEDIF
 70
    70
  9
$TILEMODE
 70
     1
  9
$MAXACTVP
 70
    64
  9
$PINSBASE
 10
0.0
 20
0.0
 30
0.0
  9
$PLIMCHECK
 70
     0
  9
$PEXTMIN
 10
0.0
 20
0.0
 30
0.0
  9
$PEXTMAX
 10
0.0
 20
0.0
 30
0.0
  9
$PLIMMIN
 10
0.0
 20
0.0
  9
$PLIMMAX
 10
12.0
 20
9.0
  9
$UNITMODE
 70
     0
  9
$VISRETAIN
 70
     1
  9
$PLINEGEN
 70
     0
  9
$PSLTSCALE
 70
     1
  9
$TREEDEPTH
 70
  3020
  9
$CMLSTYLE
  2
Standard
  9
$CMLJUST
 70
     0
  9
$CMLSCALE
 40
20.0
  9
$PROXYGRAPHICS
 70
     1
  9
$MEASUREMENT
 70
     1
  9
$CELWEIGHT
370
    -1
  9
$ENDCAPS
280
     0
  9
$JOINSTYLE
280
     0
  9
$LWDISPLAY
290
     0
  9
$INSUNITS
 70
     4
  9
$HYPERLINKBASE
  1

  9
$STYLESHEET
  1

  9
$XEDIT
290
     1
  9
$CEPSNTYPE
380
     0
  9
$PSTYLEMODE
290
     1
  9
$FINGERPRINTGUID
  2
{E870D4A9-AFBA-4567-A82D-1C8002495240}
  9
$VERSIONGUID
  2
{C9DD9290-3486-43B5-88B5-E39C61E1307F}
  9
$EXTNAMES
290
     1
  9
$PSVPSCALE
 40
0.0
  9
$OLESTARTUP
290
     0
  0
ENDSEC
  0
SECTION
  2
CLASSES
  0
CLASS
  1
ACDBDICTIONARYWDFLT
  2
AcDbDictionaryWithDefault
  3
ObjectDBX Classes
 90
        0
280
     0
281
     0
  0
CLASS
  1
DICTIONARYVAR
  2
AcDbDictionaryVar
  3
ObjectDBX Classes
 90
        0
280
     0
281
     0
  0
CLASS
  1
TABLESTYLE
  2
AcDbTableStyle
  3
ObjectDBX Classes
 90
     4095
280
     0
281
     0
  0
CLASS
  1
RASTERVARIABLES
  2
AcDbRasterVariables
  3
ISM
 90
        0
280
     0
281
     0
  0
CLASS
  1
IMAGEDEF
  2
AcDbRasterImageDef
  3
ISM
 90
        0
280
     0
281
     0
  0
CLASS
  1
IMAGEDEF_REACTOR
  2
AcDbRasterImageDefReactor
  3
ISM
 90
        1
280
     0
281
     0
  0
CLASS
  1
IMAGE
  2
AcDbRasterImage
  3
ISM
 90
     2175
280
     0
281
     1
  0
CLASS
  1
ACDBPLACEHOLDER
  2
AcDbPlaceHolder
  3
ObjectDBX Classes
 90
        0
280
     0
281
     0
  0
CLASS
  1
LAYOUT
  2
AcDbLayout
  3
ObjectDBX Classes
 90
        0
280
     0
281
     0
  0
CLASS
  1
MATERIAL
  2
AcDbMaterial
  3
ObjectDBX Classes
 90
     1024
280
     0
281
     0
  0
CLASS
  1
VISUALSTYLE
  2
AcDbVisualStyle
  3
ObjectDBX Classes
 90
     4095
280
     0
281
     0
  0
CLASS
  1
DIMASSOC
  2
AcDbDimAssoc
  3
"AcDbDimAssoc|Product Desc:     AcDim ARX App For Dimension|Company:          Autodesk, Inc.|WEB Address:      www.autodesk.com"
 90
        0
280
     0
281
     0
  0
CLASS
  1
SORTENTSTABLE
  2
AcDbSortentsTable
  3
ObjectDBX Classes
 90
        0
280
     0
281
     0
  0
ENDSEC
  0
SECTION
  2
TABLES
  0
TABLE
  2
VPORT
  5
8
102
{ACAD_XDICTIONARY
360
792
102
}
330
0
100
AcDbSymbolTable
 70
     1
  0
VPORT
  5
106
330
8
100
AcDbSymbolTableRecord
100
AcDbViewportTableRecord
  2
*Active
 70
     0
 10
0.0
 20
0.0
 11
1.0
 21
1.0
 12
1022.238453345496
 22
587.3983680369742
 13
0.0
 23
0.0
 14
10.0
 24
10.0
 15
10.0
 25
10.0
 16
0.0
 26
0.0
 36
1.0
 17
0.0
 27
0.0
 37
0.0
 40
277.7581792387347
 41
2.13563829787234
 42
50.0
 43
0.0
 44
0.0
 50
0.0
 51
0.0
 71
     0
 72
  1000
 73
     1
 74
     3
 75
     0
 76
     0
 77
     0
 78
     0
281
     0
 65
     1
110
0.0
120
0.0
130
0.0
111
1.0
121
0.0
131
0.0
112
0.0
122
1.0
132
0.0
 79
     0
146
0.0
  0
ENDTAB
  0
TABLE
  2
LTYPE
  5
5
330
0
100
AcDbSymbolTable
 70
     2
  0
LTYPE
  5
14
330
5
100
AcDbSymbolTableRecord
100
AcDbLinetypeTableRecord
  2
ByBlock
 70
     0
  3

 72
    65
 73
     0
 40
0.0
  0
LTYPE
  5
15
330
5
100
AcDbSymbolTableRecord
100
AcDbLinetypeTableRecord
  2
ByLayer
 70
     0
  3

 72
    65
 73
     0
 40
0.0
  0
LTYPE
  5
16
330
5
100
AcDbSymbolTableRecord
100
AcDbLinetypeTableRecord
  2
Continuous
 70
     0
  3
Solid line
 72
    65
 73
     0
 40
0.0
  0
ENDTAB
  0
TABLE
  2
LAYER
  5
2
102
{ACAD_XDICTIONARY
360
128
102
}
330
0
100
AcDbSymbolTable
 70
     4
  0
LAYER
  5
10
330
2
100
AcDbSymbolTableRecord
100
AcDbLayerTableRecord
  2
0
 70
     0
 62
     6
  6
Continuous
370
    -3
390
F
  0
LAYER
  5
126
330
2
100
AcDbSymbolTableRecord
100
AcDbLayerTableRecord
  2
Obrazek
 70
     0
 62
    -7
  6
Continuous
370
    -3
390
F
1001
AcAecLayerStandard
1000

1000

  0
LAYER
  5
1A9
330
2
100
AcDbSymbolTableRecord
100
AcDbLayerTableRecord
  2
Defpoints
 70
     0
 62
    -7
  6
Continuous
290
     0
370
    -3
390
F
  0
LAYER
  5
C92
330
2
100
AcDbSymbolTableRecord
100
AcDbLayerTableRecord
  2
Srafy
 70
     0
 62
    -6
  6
Continuous
370
    -3
390
F
1001
AcAecLayerStandard
1000

1000

  0
ENDTAB
  0
TABLE
  2
STYLE
  5
3
330
0
100
AcDbSymbolTable
 70
     1
  0
STYLE
  5
11
330
3
100
AcDbSymbolTableRecord
100
AcDbTextStyleTableRecord
  2
Standard
 70
     0
 40
0.0
 41
1.0
 50
0.0
 71
     0
 42
2.5
  3
txt
  4

  0
ENDTAB
  0
TABLE
  2
VIEW
  5
6
330
0
100
AcDbSymbolTable
 70
     0
  0
ENDTAB
  0
TABLE
  2
UCS
  5
7
330
0
100
AcDbSymbolTable
 70
     0
  0
ENDTAB
  0
TABLE
  2
APPID
  5
9
330
0
100
AcDbSymbolTable
 70
     4
  0
APPID
  5
12
330
9
100
AcDbSymbolTableRecord
100
AcDbRegAppTableRecord
  2
ACAD
 70
     0
  0
APPID
  5
9E
330
9
100
AcDbSymbolTableRecord
100
AcDbRegAppTableRecord
  2
ACAD_PSEXT
 70
     0
  0
APPID
  5
127
330
9
100
AcDbSymbolTableRecord
100
AcDbRegAppTableRecord
  2
AcAecLayerStandard
 70
     0
  0
APPID
  5
3C4
330
9
100
AcDbSymbolTableRecord
100
AcDbRegAppTableRecord
  2
ACAD_EXEMPT_FROM_CAD_STANDARDS
 70
     0
  0
ENDTAB
  0
TABLE
  2
DIMSTYLE
  5
A
330
0
100
AcDbSymbolTable
 70
     2
100
AcDbDimStyleTable
 71
     1
340
27
  0
DIMSTYLE
105
27
330
A
100
AcDbSymbolTableRecord
100
AcDbDimStyleTableRecord
  2
ISO-25
 70
     0
 41
2.5
 42
0.625
 43
3.75
 44
1.25
 73
     0
 74
     0
 77
     1
 78
     8
140
2.5
141
2.5
143
0.03937007874016
147
0.625
171
     3
172
     1
271
     2
272
     2
274
     3
278
    44
283
     0
284
     8
340
11
  0
ENDTAB
  0
TABLE
  2
BLOCK_RECORD
  5
1
330
0
100
AcDbSymbolTable
 70
     4
  0
BLOCK_RECORD
  5
1F
102
{ACAD_XDICTIONARY
360
1CE
102
}
330
1
100
AcDbSymbolTableRecord
100
AcDbBlockTableRecord
  2
*Model_Space
340
22
  0
BLOCK_RECORD
  5
D2
330
1
100
AcDbSymbolTableRecord
100
AcDbBlockTableRecord
  2
*Paper_Space
340
D3
  0
BLOCK_RECORD
  5
D6
330
1
100
AcDbSymbolTableRecord
100
AcDbBlockTableRecord
  2
*Paper_Space0
340
D7
  0
BLOCK_RECORD
  5
814
330
1
100
AcDbSymbolTableRecord
100
AcDbBlockTableRecord
  2
*D2
340
0
  0
ENDTAB
  0
ENDSEC
  0
SECTION
  2
BLOCKS
  0
BLOCK
  5
20
330
1F
100
AcDbEntity
  8
0
100
AcDbBlockBegin
  2
*Model_Space
 70
     0
 10
0.0
 20
0.0
 30
0.0
  3
*Model_Space
  1

  0
ENDBLK
  5
21
330
1F
100
AcDbEntity
  8
0
100
AcDbBlockEnd
  0
BLOCK
  5
D4
330
D2
100
AcDbEntity
 67
     1
  8
0
100
AcDbBlockBegin
  2
*Paper_Space
 70
     0
 10
0.0
 20
0.0
 30
0.0
  3
*Paper_Space
  1

  0
ENDBLK
  5
D5
330
D2
100
AcDbEntity
 67
     1
  8
0
100
AcDbBlockEnd
  0
BLOCK
  5
D8
330
D6
100
AcDbEntity
 67
     1
  8
0
100
AcDbBlockBegin
  2
*Paper_Space0
 70
     0
 10
0.0
 20
0.0
 30
0.0
  3
*Paper_Space0
  1

  0
ENDBLK
  5
D9
330
D6
100
AcDbEntity
 67
     1
  8
0
100
AcDbBlockEnd
  0
BLOCK
  5
81E
330
814
100
AcDbEntity
  8
0
100
AcDbBlockBegin
  2
*D2
 70
     1
 10
0.0
 20
0.0
 30
0.0
  3
*D2
  1

  0
ARC
  5
821
330
814
100
AcDbEntity
  8
0
 62
     0
370
    -2
100
AcDbCircle
 10
859.8639712522365
 20
565.3426537145748
 30
0.0
 40
9.770228806248661
100
AcDbArc
 50
323.9663688361209
 51
18.97028700311357
  0
SOLID
  5
822
330
814
100
AcDbEntity
  8
0
 62
     0
100
AcDbTrace
 10
868.067698630465
 20
559.3090158159805
 30
0.0
 11
867.462061686869
 21
559.8814215610566
 31
0.0
 12
866.0476629234386
 22
557.7783078577306
 32
0.0
 13
866.0476629234386
 23
557.7783078577306
 33
0.0
  0
SOLID
  5
823
330
814
100
AcDbEntity
  8
0
 62
     0
100
AcDbTrace
 10
868.7300835566841
 20
568.3339891174346
 30
0.0
 11
869.477021249493
 21
568.7034867865823
 31
0.0
 12
867.995059395645
 22
570.7595510304352
 32
0.0
 13
867.995059395645
 23
570.7595510304352
 33
0.0
  0
MTEXT
  5
824
330
814
100
AcDbEntity
  8
0
 62
     0
100
AcDbMText
 10
867.6718315028287
 20
564.1713483699946
 30
0.0
 40
2.5
 41
0.0
 71
     5
 72
     1
  1
84\U+00B0
 11
0.1483560987685526
 21
0.9889340058660009
 31
0.0
 73
     1
 44
1.0
1001
ACAD
1000
MTEXTBEGIN
1070
    73
1070
     1
1070
    44
1040
1.0
1070
    74
1070
     0
1000
MTEXTEND
  0
POINT
  5
825
330
814
100
AcDbEntity
  8
Defpoints
 62
     0
100
AcDbPoint
 10
868.8839883165769
 20
561.5881013996567
 30
0.0
  0
POINT
  5
826
330
814
100
AcDbEntity
  8
Defpoints
 62
     0
100
AcDbPoint
 10
875.5133804745444
 20
575.7682254604476
 30
0.0
  0
POINT
  5
827
330
814
100
AcDbEntity
  8
Defpoints
 62
     0
100
AcDbPoint
 10
859.8639712522365
 20
565.3426537145748
 30
0.0
  0
POINT
  5
828
330
814
100
AcDbEntity
  8
Defpoints
 62
     0
100
AcDbPoint
 10
871.0697211212279
 20
551.6349573898869
 30
0.0
  0
POINT
  5
829
330
814
100
AcDbEntity
  8
Defpoints
 62
     0
100
AcDbPoint
 10
859.8639712522365
 20
565.3426537145748
 30
0.0
  0
ENDBLK
  5
81F
330
814
100
AcDbEntity
  8
0
100
AcDbBlockEnd
  0
ENDSEC
  0
SECTION
  2
ENTITIES
  0
IMAGE
  5
F8
102
{ACAD_REACTORS
330
5B5
330
5DC
330
7FC
330
A7E
330
B09
330
BB3
102
}
330
1F
100
AcDbEntity
  8
Obrazek
 92
      140
310
8C000000010000008400000006000000050000003891A7800CC28A400CB45313D2F07F4000000000000000003891A7800CC28A40D8917AFDF77D854000000000000000003C4D59CD4AF59040D8917AFDF77D854000000000000000003C4D59CD4AF590400CB45313D2F07F4000000000000000003891A7800CC28A400CB453
310
13D2F07F400000000000000000
100
AcDbRasterImage
 90
        0
 10
856.2561047640983
 20
511.0512879628811
 30
0.0
 11
0.4894592824883334
 21
0.0
 31
0.0
 12
0.0
 22
0.4894592824883335
 32
0.0
 13
468.0
 23
361.0
340
F6
 70
     7
280
     0
281
    50
282
    50
283
     0
360
F7
 71
     1
 91
        2
 14
-0.5
 24
-0.5
 14
467.4999999999999
 24
360.5
  0
LINE
  5
16B
330
1F
100
AcDbEntity
  8
0
100
AcDbLine
 10
919.3575604021916
 20
675.3216448089449
 30
0.0
 11
919.3575604021916
 21
675.3216448089449
 31
0.0
  0
LINE
  5
176
102
{ACAD_REACTORS
330
5DC
102
}
330
1F
100
AcDbEntity
  8
0
100
AcDbLine
 10
875.6339676785016
 20
687.7460889411695
 30
0.0
 11
901.4695619507126
 21
660.8062478381238
 31
0.0
  0
LINE
  5
193
102
{ACAD_REACTORS
330
5B5
102
}
330
1F
100
AcDbEntity
  8
0
100
AcDbLine
 10
1018.717856225848
 20
649.8798116577965
 30
0.0
 11
1030.722207102582
 21
644.7906528691239
 31
0.0
  0
LINE
  5
19E
102
{ACAD_REACTORS
330
5B5
102
}
330
1F
100
AcDbEntity
  8
0
100
AcDbLine
 10
980.748224318564
 20
680.8530156000888
 30
0.0
 11
977.0500602789274
 21
673.4619106420134
 31
0.0
  0
LINE
  5
1A4
102
{ACAD_REACTORS
330
5B5
102
}
330
1F
100
AcDbEntity
  8
0
100
AcDbLine
 10
966.4193754661523
 20
649.9213705390959
 30
0.0
 11
977.167617200887
 21
644.5080823357589
 31
0.0
  0
LINE
  5
1A6
102
{ACAD_REACTORS
330
5B5
102
}
330
1F
100
AcDbEntity
  8
0
100
AcDbLine
 10
970.8062445571531
 20
631.8773912712368
 30
0.0
 11
991.1137278857914
 21
672.1984921698965
 31
0.0
  0
LINE
  5
1A7
102
{ACAD_REACTORS
330
5B5
102
}
330
1F
100
AcDbEntity
  8
0
100
AcDbLine
 10
960.0580028224184
 20
637.2906794745736
 30
0.0
 11
970.8733260275208
 21
631.8436060865369
 31
0.0
  0
LINE
  5
1CA
102
{ACAD_REACTORS
330
5B5
102
}
330
1F
100
AcDbEntity
  8
0
100
AcDbLine
 10
960.0580028224189
 20
637.2906794745738
 30
0.0
 11
966.4193754661523
 21
649.9213705390957
 31
0.0
  0
LINE
  5
1CB
102
{ACAD_REACTORS
330
5B5
102
}
330
1F
100
AcDbEntity
  8
0
100
AcDbLine
 10
967.6169016332414
 20
649.3182435874071
 30
0.0
 11
976.1213069220461
 21
666.2039885211197
 31
0.0
  0
LINE
  5
1CC
102
{ACAD_REACTORS
330
5B5
102
}
330
1F
100
AcDbEntity
  8
0
100
AcDbLine
 10
976.1213069220467
 20
666.2039885211195
 30
0.0
 11
985.6720224896921
 21
661.3938272694722
 31
0.0
  0
LINE
  5
1EA
102
{ACAD_REACTORS
330
5B5
102
}
330
1F
100
AcDbEntity
  8
0
100
AcDbLine
 10
986.6567587203366
 20
674.4432182563992
 30
0.0
 11
991.1137278857914
 21
672.1984921698967
 31
0.0
  0
LINE
  5
204
102
{ACAD_REACTORS
330
5B5
102
}
330
1F
100
AcDbEntity
  8
0
100
AcDbLine
 10
986.6567587203366
 20
674.4432182563992
 30
0.0
 11
988.7355196043031
 21
678.5706586679034
 31
0.0
  0
LINE
  5
205
102
{ACAD_REACTORS
330
5B5
102
}
330
1F
100
AcDbEntity
  8
0
100
AcDbLine
 10
983.4692151249345
 20
681.2230016852009
 30
0.0
 11
988.7355196043031
 21
678.5706586679034
 31
0.0
  0
LINE
  5
206
102
{ACAD_REACTORS
330
5B5
102
}
330
1F
100
AcDbEntity
  8
0
100
AcDbLine
 10
982.7700283722993
 20
679.8347459794702
 30
0.0
 11
983.4692151249342
 21
681.2230016852006
 31
0.0
  0
LINE
  5
207
102
{ACAD_REACTORS
330
5B5
102
}
330
1F
100
AcDbEntity
  8
0
100
AcDbLine
 10
980.748224318564
 20
680.8530156000884
 30
0.0
 11
982.7700283722993
 21
679.8347459794702
 31
0.0
  0
LINE
  5
208
102
{ACAD_REACTORS
330
5B5
102
}
330
1F
100
AcDbEntity
  8
0
100
AcDbLine
 10
971.783755799559
 20
676.1142536593109
 30
0.0
 11
977.0500602789274
 21
673.4619106420134
 31
0.0
  0
LINE
  5
209
102
{ACAD_REACTORS
330
5B5
102
}
330
1F
100
AcDbEntity
  8
0
100
AcDbLine
 10
971.7837557995594
 20
676.1142536593113
 30
0.0
 11
968.5553448519272
 21
669.6619914270245
 31
0.0
  0
LINE
  5
20A
102
{ACAD_REACTORS
330
5B5
102
}
330
1F
100
AcDbEntity
  8
0
100
AcDbLine
 10
970.0516117236261
 20
668.9084054912489
 30
0.0
 11
967.0352244716232
 21
662.8798911974516
 31
0.0
  0
LINE
  5
20B
102
{ACAD_REACTORS
330
5B5
102
}
330
1F
100
AcDbEntity
  8
0
100
AcDbLine
 10
968.5553448519272
 20
669.6619914270245
 30
0.0
 11
970.0516117236261
 21
668.9084054912489
 31
0.0
  0
LINE
  5
20C
102
{ACAD_REACTORS
330
5B5
102
}
330
1F
100
AcDbEntity
  8
0
100
AcDbLine
 10
967.0352244716232
 20
662.8798911974513
 30
0.0
 11
972.9474624190419
 21
659.9022276199138
 31
0.0
  0
LINE
  5
29D
102
{ACAD_REACTORS
330
916
102
}
330
1F
100
AcDbEntity
  8
0
100
AcDbLine
 10
874.1660376239325
 20
574.8706312218537
 30
0.0
 11
861.0649972857553
 21
566.1427722943397
 31
0.0
  0
LINE
  5
2A8
102
{ACAD_REACTORS
330
7FC
102
}
330
1F
100
AcDbEntity
  8
0
100
AcDbLine
 10
898.8908932717507
 20
613.6091902765961
 30
0.0
 11
874.7405703867219
 21
619.7873070070427
 31
0.0
  0
LINE
  5
2AB
102
{ACAD_REACTORS
330
7FC
102
}
330
1F
100
AcDbEntity
  8
0
100
AcDbLine
 10
872.6176067844489
 20
586.0917491589711
 30
0.0
 11
864.2478706722096
 21
598.5445568652934
 31
0.0
  0
LINE
  5
2AF
102
{ACAD_REACTORS
330
7FC
102
}
330
1F
100
AcDbEntity
  8
0
100
AcDbLine
 10
874.7405703867219
 20
619.7873070070427
 30
0.0
 11
856.2561047640983
 21
620.9919642795564
 31
0.0
  0
LINE
  5
2CA
102
{ACAD_REACTORS
330
5B5
102
}
330
1F
100
AcDbEntity
  8
0
100
AcDbLine
 10
938.8683530092867
 20
653.9631825124334
 30
0.0
 11
908.0079253321683
 21
687.7460889411695
 31
0.0
  0
LINE
  5
2E6
102
{ACAD_REACTORS
330
5B5
102
}
330
1F
100
AcDbEntity
  8
0
100
AcDbLine
 10
943.6803852701059
 20
658.3589373264317
 30
0.0
 11
938.8683530092867
 21
653.9631825124334
 31
0.0
  0
LINE
  5
2E7
102
{ACAD_REACTORS
330
5B5
102
}
330
1F
100
AcDbEntity
  8
0
100
AcDbLine
 10
943.6803852701059
 20
658.3589373264317
 30
0.0
 11
930.8386921707301
 21
672.4167372021086
 31
0.0
  0
LINE
  5
2EA
102
{ACAD_REACTORS
330
5B5
102
}
330
1F
100
AcDbEntity
  8
0
100
AcDbLine
 10
936.1919362302165
 20
677.3068848714402
 30
0.0
 11
930.8386921707301
 21
672.4167372021086
 31
0.0
  0
LINE
  5
2EC
102
{ACAD_REACTORS
330
5B5
102
}
330
1F
100
AcDbEntity
  8
0
100
AcDbLine
 10
936.1919362302165
 20
677.3068848714402
 30
0.0
 11
929.8684609393244
 21
684.2291925041047
 31
0.0
  0
LINE
  5
306
102
{ACAD_REACTORS
330
5B5
102
}
330
1F
100
AcDbEntity
  8
0
100
AcDbLine
 10
922.592826125755
 20
678.130408856718
 30
0.0
 11
919.4305745993457
 21
675.2417161761911
 31
0.0
  0
LINE
  5
307
102
{ACAD_REACTORS
330
5B5
102
}
330
1F
100
AcDbEntity
  8
0
100
AcDbLine
 10
922.5928261257552
 20
678.130408856718
 30
0.0
 11
919.8585229584905
 21
681.1236502017168
 31
0.0
  0
LINE
  5
308
102
{ACAD_REACTORS
330
5B5
102
}
330
1F
100
AcDbEntity
  8
0
100
AcDbLine
 10
924.424207707409
 20
685.2943684401768
 30
0.0
 11
919.8585229584905
 21
681.1236502017168
 31
0.0
  0
LINE
  5
309
102
{ACAD_REACTORS
330
5B5
102
}
330
1F
100
AcDbEntity
  8
0
100
AcDbLine
 10
929.8684609393248
 20
684.2291925041047
 30
0.0
 11
927.4311208943473
 21
682.0027009397615
 31
0.0
  0
LINE
  5
30A
102
{ACAD_REACTORS
330
5B5
102
}
330
1F
100
AcDbEntity
  8
0
100
AcDbLine
 10
927.4311208943476
 20
682.0027009397622
 30
0.0
 11
924.424207707409
 21
685.2943684401768
 31
0.0
  0
LINE
  5
30C
102
{ACAD_REACTORS
330
5B5
102
}
330
1F
100
AcDbEntity
  8
0
100
AcDbLine
 10
922.4013427655352
 20
683.4464967252031
 30
0.0
 11
918.4736980289338
 21
687.7460889411695
 31
0.0
  0
LINE
  5
361
102
{ACAD_REACTORS
330
5B5
102
}
330
1F
100
AcDbEntity
  8
0
100
AcDbLine
 10
962.3815976253258
 20
666.5343612676304
 30
0.0
 11
965.6334535557835
 21
672.5520646323266
 31
0.0
  0
LINE
  5
363
102
{ACAD_REACTORS
330
5B5
102
}
330
1F
100
AcDbEntity
  8
0
100
AcDbLine
 10
962.3815976253258
 20
666.5343612676304
 30
0.0
 11
945.8302628467199
 21
675.4783973715957
 31
0.0
  0
LINE
  5
364
102
{ACAD_REACTORS
330
5B5
102
}
330
1F
100
AcDbEntity
  8
0
100
AcDbLine
 10
965.6334535557835
 20
672.5520646323266
 30
0.0
 11
962.0279213635294
 21
674.5004277421835
 31
0.0
  0
LINE
  5
365
102
{ACAD_REACTORS
330
5B5
102
}
330
1F
100
AcDbEntity
  8
0
100
AcDbLine
 10
962.0279213635294
 20
674.5004277421835
 30
0.0
 11
963.6256962349857
 21
677.4571808781184
 31
0.0
  0
LINE
  5
366
102
{ACAD_REACTORS
330
5B5
102
}
330
1F
100
AcDbEntity
  8
0
100
AcDbLine
 10
963.6256962349857
 20
677.4571808781184
 30
0.0
 11
955.4527890024878
 21
681.8736692362845
 31
0.0
  0
LINE
  5
380
102
{ACAD_REACTORS
330
5B5
102
}
330
1F
100
AcDbEntity
  8
0
100
AcDbLine
 10
953.5800731184213
 20
678.408125584393
 30
0.0
 11
955.4527890024873
 21
681.873669236285
 31
0.0
  0
LINE
  5
383
102
{ACAD_REACTORS
330
5B5
102
}
330
1F
100
AcDbEntity
  8
0
100
AcDbLine
 10
945.8302628467199
 20
675.4783973715957
 30
0.0
 11
948.8071777645677
 21
680.9873102203346
 31
0.0
  0
LINE
  5
384
102
{ACAD_REACTORS
330
5B5
102
}
330
1F
100
AcDbEntity
  8
0
100
AcDbLine
 10
953.5800731184213
 20
678.4081255843932
 30
0.0
 11
948.8071777645677
 21
680.9873102203348
 31
0.0
  0
LINE
  5
3BA
102
{ACAD_REACTORS
330
5B5
102
}
330
1F
100
AcDbEntity
  8
0
100
AcDbLine
 10
1018.720520422673
 20
649.8864372134287
 30
0.0
 11
998.3385243726242
 21
658.0822251893821
 31
0.0
  0
LINE
  5
3BC
102
{ACAD_REACTORS
330
5B5
102
}
330
1F
100
AcDbEntity
  8
0
100
AcDbLine
 10
998.3385243726242
 20
658.0822251893821
 30
0.0
 11
991.8570812016964
 21
641.963610420911
 31
0.0
  0
LINE
  5
3BD
102
{ACAD_REACTORS
330
5B5
102
}
330
1F
100
AcDbEntity
  8
0
100
AcDbLine
 10
1004.238917206214
 20
636.9847603418088
 30
0.0
 11
991.8570812016964
 21
641.963610420911
 31
0.0
  0
LINE
  5
3BF
102
{ACAD_REACTORS
330
5B5
102
}
330
1F
100
AcDbEntity
  8
0
100
AcDbLine
 10
1007.919452177892
 20
646.1378337833016
 30
0.0
 11
1004.238917206214
 21
636.9847603418088
 31
0.0
  0
LINE
  5
3C1
102
{ACAD_REACTORS
330
5B5
102
}
330
1F
100
AcDbEntity
  8
0
100
AcDbLine
 10
1015.904004566305
 20
642.882081411664
 30
0.0
 11
1007.903844520773
 21
646.0990193085153
 31
0.0
  0
LINE
  5
3C2
102
{ACAD_REACTORS
330
5B5
102
}
330
1F
100
AcDbEntity
  8
0
100
AcDbLine
 10
1018.720520422673
 20
649.8864372134289
 30
0.0
 11
1015.904004566305
 21
642.882081411664
 31
0.0
  0
LINE
  5
3E3
102
{ACAD_REACTORS
330
5B5
102
}
330
1F
100
AcDbEntity
  8
0
100
AcDbLine
 10
998.3385243726242
 20
658.0822251893821
 30
0.0
 11
1006.826833741937
 21
676.8094321424903
 31
0.0
  0
LINE
  5
3FD
102
{ACAD_REACTORS
330
5B5
102
}
330
1F
100
AcDbEntity
  8
0
100
AcDbLine
 10
1022.793826624969
 20
669.5722196938768
 30
0.0
 11
1006.826833741937
 21
676.8094321424903
 31
0.0
  0
LINE
  5
3FE
102
{ACAD_REACTORS
330
5B5
102
}
330
1F
100
AcDbEntity
  8
0
100
AcDbLine
 10
1017.29823684861
 20
657.4476560624755
 30
0.0
 11
1022.793826624969
 21
669.5722196938768
 31
0.0
  0
LINE
  5
3FF
102
{ACAD_REACTORS
330
5B5
102
}
330
1F
100
AcDbEntity
  8
0
100
AcDbLine
 10
1020.500834038485
 20
655.9960442016672
 30
0.0
 11
1017.29823684861
 21
657.4476560624755
 31
0.0
  0
LINE
  5
400
102
{ACAD_REACTORS
330
5B5
102
}
330
1F
100
AcDbEntity
  8
0
100
AcDbLine
 10
1017.88404483392
 20
650.2227917370809
 30
0.0
 11
1021.076211701628
 21
657.2654626576948
 31
0.0
  0
LINE
  5
41B
102
{ACAD_REACTORS
330
5B5
102
}
330
1F
100
AcDbEntity
  8
0
100
AcDbLine
 10
1030.722207102582
 20
644.7906528691237
 30
0.0
 11
1037.830680885948
 21
661.5581810672054
 31
0.0
  0
LINE
  5
41D
102
{ACAD_REACTORS
330
5B5
102
}
330
1F
100
AcDbEntity
  8
0
100
AcDbLine
 10
1027.130939120278
 20
666.0942601440686
 30
0.0
 11
1037.830680885948
 21
661.5581810672054
 31
0.0
  0
LINE
  5
41E
102
{ACAD_REACTORS
330
5B5
102
}
330
1F
100
AcDbEntity
  8
0
100
AcDbLine
 10
1025.079908240377
 20
661.2562711239267
 30
0.0
 11
1027.130939120278
 21
666.0942601440686
 31
0.0
  0
LINE
  5
438
102
{ACAD_REACTORS
330
5B5
102
}
330
1F
100
AcDbEntity
  8
0
100
AcDbLine
 10
1025.079908240377
 20
661.2562711239272
 30
0.0
 11
1026.969064343685
 21
660.4553768910739
 31
0.0
  0
LINE
  5
439
102
{ACAD_REACTORS
330
5B5
102
}
330
1F
100
AcDbEntity
  8
0
100
AcDbLine
 10
1024.924991289487
 20
655.633800049166
 30
0.0
 11
1026.969064343685
 21
660.4553768910739
 31
0.0
  0
LINE
  5
43A
102
{ACAD_REACTORS
330
5B5
102
}
330
1F
100
AcDbEntity
  8
0
100
AcDbLine
 10
1021.076211701628
 20
657.2654626576943
 30
0.0
 11
1024.924991289487
 21
655.633800049166
 31
0.0
  0
LINE
  5
486
102
{ACAD_REACTORS
330
5DC
330
BFF
102
}
330
1F
100
AcDbEntity
  8
0
100
AcDbLine
 10
894.1639033444149
 20
653.8000434985499
 30
0.0
 11
901.4695619507126
 21
660.8062478381238
 31
0.0
  0
LINE
  5
487
102
{ACAD_REACTORS
330
5DC
102
}
330
1F
100
AcDbEntity
  8
0
100
AcDbLine
 10
885.3957713379154
 20
662.9429368470367
 30
0.0
 11
894.1639033444149
 21
653.8000434985499
 31
0.0
  0
LINE
  5
488
102
{ACAD_REACTORS
330
5DC
102
}
330
1F
100
AcDbEntity
  8
0
100
AcDbLine
 10
882.7996750335916
 20
660.4532528673298
 30
0.0
 11
892.7014299442134
 21
669.9491411866112
 31
0.0
  0
LINE
  5
4A2
102
{ACAD_REACTORS
330
5DC
102
}
330
1F
100
AcDbEntity
  8
0
100
AcDbLine
 10
865.2648980918055
 20
678.7374889337388
 30
0.0
 11
882.799675033592
 21
660.4532528673298
 31
0.0
  0
LINE
  5
4A3
102
{ACAD_REACTORS
330
5DC
102
}
330
1F
100
AcDbEntity
  8
0
100
AcDbLine
 10
865.2648980918055
 20
678.7374889337388
 30
0.0
 11
874.704736980972
 21
687.7903948734103
 31
0.0
  0
LINE
  5
521
102
{ACAD_REACTORS
330
5B5
102
}
330
1F
100
AcDbEntity
  8
0
100
AcDbLine
 10
940.8504198376649
 20
599.5405874341238
 30
0.0
 11
953.2756429288843
 21
594.9448889624336
 31
0.0
  0
LINE
  5
523
102
{ACAD_REACTORS
330
5B5
102
}
330
1F
100
AcDbEntity
  8
0
100
AcDbLine
 10
937.0324577694459
 20
589.2181020178891
 30
0.0
 11
940.8504198376654
 21
599.5405874341238
 31
0.0
  0
LINE
  5
524
102
{ACAD_REACTORS
330
5B5
102
}
330
1F
100
AcDbEntity
  8
0
100
AcDbLine
 10
932.9101107719916
 20
590.7428282668177
 30
0.0
 11
937.0324577694459
 21
589.2181020178891
 31
0.0
  0
LINE
  5
525
102
{ACAD_REACTORS
330
5B5
102
}
330
1F
100
AcDbEntity
  8
0
100
AcDbLine
 10
927.3088473491917
 20
575.5988957286636
 30
0.0
 11
932.9101107719916
 21
590.7428282668178
 31
0.0
  0
LINE
  5
527
102
{ACAD_REACTORS
330
5B5
102
}
330
1F
100
AcDbEntity
  8
0
100
AcDbLine
 10
927.3088473491917
 20
575.5988957286636
 30
0.0
 11
934.7754422067451
 21
572.8372375818703
 31
0.0
  0
LINE
  5
528
102
{ACAD_REACTORS
330
5B5
102
}
330
1F
100
AcDbEntity
  8
0
100
AcDbLine
 10
933.7681383165636
 20
570.1138266285068
 30
0.0
 11
934.7754422067451
 21
572.8372375818703
 31
0.0
  0
LINE
  5
529
102
{ACAD_REACTORS
330
5B5
102
}
330
1F
100
AcDbEntity
  8
0
100
AcDbLine
 10
933.7681383165636
 20
570.1138266285072
 30
0.0
 11
943.4349736298369
 21
566.5383688722047
 31
0.0
  0
LINE
  5
52A
102
{ACAD_REACTORS
330
5B5
102
}
330
1F
100
AcDbEntity
  8
0
100
AcDbLine
 10
943.4349736298369
 20
566.5383688722047
 30
0.0
 11
944.6232193969398
 21
569.7509858083247
 31
0.0
  0
LINE
  5
52B
102
{ACAD_REACTORS
330
5B5
102
}
330
1F
100
AcDbEntity
  8
0
100
AcDbLine
 10
944.6232193969398
 20
569.7509858083244
 30
0.0
 11
950.6168127764453
 21
567.5341444903131
 31
0.0
  0
LINE
  5
52C
102
{ACAD_REACTORS
330
5B5
102
}
330
1F
100
AcDbEntity
  8
0
100
AcDbLine
 10
950.6168127764453
 20
567.5341444903131
 30
0.0
 11
956.1821674700977
 21
582.5809919012926
 31
0.0
  0
LINE
  5
52D
102
{ACAD_REACTORS
330
5B5
102
}
330
1F
100
AcDbEntity
  8
0
100
AcDbLine
 10
949.6027140084393
 20
585.0145244017806
 30
0.0
 11
956.1821674700977
 21
582.5809919012924
 31
0.0
  0
LINE
  5
52E
102
{ACAD_REACTORS
330
5B5
102
}
330
1F
100
AcDbEntity
  8
0
100
AcDbLine
 10
949.6027140084393
 20
585.0145244017806
 30
0.0
 11
953.2756429288843
 21
594.9448889624334
 31
0.0
  0
HATCH
  5
5B5
330
1F
100
AcDbEntity
  8
Srafy
100
AcDbHatch
 10
0.0
 20
0.0
 30
0.0
210
0.0
220
0.0
230
1.0
  2
SOLID
 70
     1
 71
     1
 91
       10
 92
        7
 72
     0
 73
     1
 93
       10
 10
938.8683530092867
 20
653.9631825124334
 10
943.6803852701059
 20
658.3589373264316
 10
930.8386921707299
 20
672.4167372021085
 10
936.1919362302163
 20
677.30688487144
 10
929.8684609393246
 20
684.2291925041044
 10
927.4311208943478
 20
682.002700939762
 10
924.4242077074089
 20
685.2943684401768
 10
919.8585229584905
 20
681.1236502017167
 10
922.592826125755
 20
678.1304088567182
 10
919.4305745993458
 20
675.2417161761914
 97
       10
330
2EA
330
2EC
330
309
330
30A
330
308
330
307
330
306
330
2CA
330
2E6
330
2E7
 92
        7
 72
     0
 73
     1
 93
        6
 10
919.4305745993458
 20
675.2417161761915
 10
922.5928261257548
 20
678.130408856718
 10
919.8585229584905
 20
681.1236502017166
 10
922.4013427655354
 20
683.446496725203
 10
918.4736980289338
 20
687.7460889411695
 10
908.0079253321683
 20
687.7460889411695
 97
        6
330
30C
330
F8
330
2CA
330
306
330
307
330
308
 92
        7
 72
     0
 73
     1
 93
        8
 10
962.0279213635294
 20
674.5004277421835
 10
963.6256962349856
 20
677.4571808781185
 10
955.4527890024871
 20
681.8736692362848
 10
953.5800731184211
 20
678.4081255843931
 10
948.8071777645679
 20
680.9873102203348
 10
945.8302628467198
 20
675.4783973715957
 10
962.381597625326
 20
666.5343612676304
 10
965.6334535557835
 20
672.5520646323266
 97
        8
330
365
330
366
330
380
330
384
330
383
330
363
330
361
330
364
 92
        7
 72
     0
 73
     1
 93
       14
 10
986.6567587203366
 20
674.4432182563992
 10
988.7355196043031
 20
678.5706586679034
 10
983.4692151249342
 20
681.2230016852009
 10
982.7700283722993
 20
679.8347459794703
 10
980.7482243185638
 20
680.8530156000884
 10
977.0500602789274
 20
673.4619106420134
 10
971.783755799559
 20
676.1142536593106
 10
968.555344851927
 20
669.6619914270245
 10
970.051611723626
 20
668.9084054912489
 10
967.035224471623
 20
662.8798911974511
 10
972.9474624190418
 20
659.9022276199138
 10
976.1213069220463
 20
666.2039885211198
 10
985.6720224896923
 20
661.393827269472
 10
991.1137278857914
 20
672.1984921698966
 97
       14
330
1EA
330
204
330
205
330
206
330
207
330
19E
330
208
330
209
330
20B
330
20A
330
20C
330
1CB
330
1CC
330
1A6
 92
        7
 72
     0
 73
     1
 93
        4
 10
967.6169016332414
 20
649.3182435874068
 10
977.167617200887
 20
644.508082335759
 10
985.6720224896927
 20
661.3938272694724
 10
976.1213069220461
 20
666.2039885211198
 97
        4
330
1CC
330
1CB
330
1A4
330
1A6
 92
        7
 72
     0
 73
     1
 93
        4
 10
977.167617200887
 20
644.5080823357591
 10
966.4193754661523
 20
649.9213705390958
 10
960.0580028224189
 20
637.2906794745735
 10
970.8062445571529
 20
631.8773912712364
 97
        4
330
1A4
330
1CA
330
1A7
330
1A6
 92
        7
 72
     0
 73
     1
 93
        6
 10
1017.29823684861
 20
657.4476560624755
 10
1022.793826624969
 20
669.5722196938768
 10
1006.826833741937
 20
676.8094321424903
 10
998.3385243726242
 20
658.0822251893822
 10
1017.884044833919
 20
650.2227917370804
 10
1020.500834038485
 20
655.9960442016674
 97
        6
330
3FD
330
3E3
330
3BA
330
400
330
3FF
330
3FE
 92
        7
 72
     0
 73
     1
 93
       10
 10
1030.722207102582
 20
644.7906528691238
 10
1037.830680885948
 20
661.5581810672054
 10
1027.130939120278
 20
666.0942601440686
 10
1025.079908240377
 20
661.2562711239271
 10
1026.969064343685
 20
660.455376891074
 10
1024.924991289487
 20
655.6338000491657
 10
1021.076211701628
 20
657.2654626576944
 10
1017.884044833919
 20
650.2227917370804
 10
1018.720520422673
 20
649.8864372134287
 10
1018.717856225847
 20
649.8798116577967
 97
       10
330
41D
330
41E
330
438
330
439
330
43A
330
400
330
3BA
330
3C2
330
193
330
41B
 92
        7
 72
     0
 73
     1
 93
        6
 10
991.8570812016964
 20
641.9636104209108
 10
1004.238917206214
 20
636.9847603418087
 10
1007.903844520773
 20
646.0990193085156
 10
1015.904004566305
 20
642.8820814116639
 10
1018.720520422673
 20
649.8864372134286
 10
998.3385243726242
 20
658.082225189382
 97
        6
330
3BC
330
3BD
330
3BF
330
3C1
330
3C2
330
3BA
 92
        7
 72
     0
 73
     1
 93
       12
 10
949.6027140084393
 20
585.0145244017808
 10
953.2756429288843
 20
594.9448889624338
 10
940.8504198376654
 20
599.5405874341237
 10
937.0324577694459
 20
589.218102017889
 10
932.9101107719914
 20
590.7428282668178
 10
927.3088473491917
 20
575.5988957286636
 10
934.7754422067451
 20
572.8372375818704
 10
933.7681383165637
 20
570.1138266285069
 10
943.4349736298369
 20
566.5383688722047
 10
944.62321939694
 20
569.7509858083243
 10
950.6168127764453
 20
567.5341444903131
 10
956.1821674700976
 20
582.5809919012925
 97
       12
330
52E
330
521
330
523
330
524
330
525
330
527
330
528
330
529
330
52A
330
52B
330
52C
330
52D
 75
     0
 76
     1
 47
0.1212503324233034
 98
       10
 10
934.4665001886546
 20
663.4826360366814
 10
915.387186530104
 20
683.1092365440549
 10
958.0350640140528
 20
673.8566963529674
 10
982.4453621333741
 20
670.7725164295716
 10
977.1143776726034
 20
656.7535161272906
 10
969.2581894311734
 20
640.2110959642132
 10
1011.625489116778
 20
659.2769359880874
 10
1022.568036735555
 20
651.9870560160973
 10
1001.24409799358
 20
650.0243957969999
 10
942.8838440267723
 20
582.7331950194913
1001
ACAD
1010
0.0
1020
0.0
1030
0.0
  0
HATCH
  5
5DC
330
1F
100
AcDbEntity
  8
Srafy
100
AcDbHatch
 10
0.0
 20
0.0
 30
0.0
210
0.0
220
0.0
230
1.0
  2
SOLID
 70
     1
 71
     1
 91
        2
 92
        7
 72
     0
 73
     1
 93
        4
 10
892.7014299442134
 20
669.9491411866112
 10
885.3957713379154
 20
662.9429368470367
 10
894.163903344415
 20
653.80004349855
 10
901.4695619507126
 20
660.8062478381238
 97
        4
330
488
330
487
330
486
330
176
 92
        7
 72
     0
 73
     1
 93
        5
 10
892.7014299442134
 20
669.9491411866111
 10
875.6339676785016
 20
687.7460889411695
 10
874.6585373556831
 20
687.7460889411695
 10
865.2648980918055
 20
678.7374889337388
 10
882.799675033592
 20
660.4532528673302
 97
        5
330
176
330
F8
330
4A3
330
4A2
330
488
 75
     0
 76
     1
 47
0.1212503324233034
 98
        2
 10
894.0480484532452
 20
661.813032516065
 10
884.5083916239698
 20
669.9440525819539
1001
ACAD
1010
0.0
1020
0.0
1030
0.0
  0
LINE
  5
628
102
{ACAD_REACTORS
330
75E
102
}
330
1F
100
AcDbEntity
  8
0
100
AcDbLine
 10
911.3079480623646
 20
625.1489589080001
 30
0.0
 11
899.4808037377591
 21
627.6371256092882
 31
0.0
  0
LINE
  5
629
102
{ACAD_REACTORS
330
75E
330
BB3
102
}
330
1F
100
AcDbEntity
  8
0
100
AcDbLine
 10
912.1838463659068
 20
629.6409761988752
 30
0.0
 11
911.2417559531667
 21
625.1628842476661
 31
0.0
  0
LINE
  5
645
102
{ACAD_REACTORS
330
75E
102
}
330
1F
100
AcDbEntity
  8
0
100
AcDbLine
 10
912.1838463659068
 20
629.640976198875
 30
0.0
 11
900.422894150499
 21
632.1152175604971
 31
0.0
  0
LINE
  5
646
102
{ACAD_REACTORS
330
75E
330
BB3
102
}
330
1F
100
AcDbEntity
  8
0
100
AcDbLine
 10
903.6053644173021
 20
647.242634519641
 30
0.0
 11
899.4808037377591
 21
627.6371256092882
 31
0.0
  0
HATCH
  5
75E
330
1F
100
AcDbEntity
  8
Srafy
100
AcDbHatch
 10
0.0
 20
0.0
 30
0.0
210
0.0
220
0.0
230
1.0
  2
SOLID
 70
     1
 71
     1
 91
        1
 92
        7
 72
     0
 73
     1
 93
        4
 10
900.4228941504992
 20
632.1152175604972
 10
899.4808037377591
 20
627.6371256092881
 10
911.2417559531667
 20
625.1628842476657
 10
912.1838463659068
 20
629.6409761988749
 97
        4
330
646
330
628
330
629
330
645
 75
     0
 76
     1
 47
0.0158962988899488
 98
        1
 10
903.2099205959061
 20
629.6594932797868
1001
ACAD
1010
0.0
1020
0.0
1030
0.0
  0
LINE
  5
7B5
102
{ACAD_REACTORS
330
B09
102
}
330
1F
100
AcDbEntity
  8
0
100
AcDbLine
 10
1015.53816623189
 20
548.5546906190095
 30
0.0
 11
1024.06306322147
 21
548.7913260700658
 31
0.0
  0
LINE
  5
7B6
102
{ACAD_REACTORS
330
B09
102
}
330
1F
100
AcDbEntity
  8
0
100
AcDbLine
 10
1024.06306322147
 20
548.7913260700658
 30
0.0
 11
1043.480883439338
 21
528.4406763816816
 31
0.0
  0
LINE
  5
7B7
102
{ACAD_REACTORS
330
B09
102
}
330
1F
100
AcDbEntity
  8
0
100
AcDbLine
 10
1043.480883439338
 20
528.4406763816816
 30
0.0
 11
1071.98363031951
 21
511.0512879628811
 31
0.0
  0
LINE
  5
7B8
102
{ACAD_REACTORS
330
B09
102
}
330
1F
100
AcDbEntity
  8
0
100
AcDbLine
 10
1015.53816623189
 20
548.5546906190095
 30
0.0
 11
996.6438000373669
 21
511.0512879628811
 31
0.0
  0
LINE
  5
7CC
102
{ACAD_REACTORS
330
7FC
102
}
330
1F
100
AcDbEntity
  8
0
100
AcDbLine
 10
898.8908932717507
 20
613.6091902765961
 30
0.0
 11
895.8125924159686
 21
601.576080050946
 31
0.0
  0
LINE
  5
7CE
102
{ACAD_REACTORS
330
7FC
102
}
330
1F
100
AcDbEntity
  8
0
100
AcDbLine
 10
895.8125924159686
 20
601.576080050946
 30
0.0
 11
871.66226953094
 21
607.754196781393
 31
0.0
  0
LINE
  5
7D0
102
{ACAD_REACTORS
330
7FC
102
}
330
1F
100
AcDbEntity
  8
0
100
AcDbLine
 10
874.7405703867219
 20
619.7873070070427
 30
0.0
 11
871.66226953094
 21
607.754196781393
 31
0.0
  0
LINE
  5
7D1
102
{ACAD_REACTORS
330
7FC
102
}
330
1F
100
AcDbEntity
  8
0
100
AcDbLine
 10
871.6622695309398
 20
607.754196781393
 30
0.0
 11
856.2561047640983
 21
608.7582370824123
 31
0.0
  0
LINE
  5
7D2
102
{ACAD_REACTORS
330
7FC
102
}
330
1F
100
AcDbEntity
  8
0
100
AcDbLine
 10
864.2478706722094
 20
598.5445568652933
 30
0.0
 11
856.2561047640983
 21
593.1731600446611
 31
0.0
  0
LINE
  5
7D3
102
{ACAD_REACTORS
330
7FC
102
}
330
1F
100
AcDbEntity
  8
0
100
AcDbLine
 10
872.6176067844489
 20
586.0917491589711
 30
0.0
 11
862.8142921581297
 21
579.5027807606319
 31
0.0
  0
LINE
  5
7D4
102
{ACAD_REACTORS
330
7FC
102
}
330
1F
100
AcDbEntity
  8
0
100
AcDbLine
 10
862.8142921581295
 20
579.502780760632
 30
0.0
 11
856.2561047640983
 21
589.2602982527868
 31
0.0
  0
HATCH
  5
7FC
330
1F
100
AcDbEntity
  8
Srafy
100
AcDbHatch
 10
0.0
 20
0.0
 30
0.0
210
0.0
220
0.0
230
1.0
  2
SOLID
 70
     1
 71
     1
 91
        3
 92
        7
 72
     0
 73
     1
 93
        4
 10
898.8908932717507
 20
613.6091902765961
 10
874.7405703867219
 20
619.7873070070428
 10
871.6622695309398
 20
607.7541967813929
 10
895.8125924159688
 20
601.576080050946
 97
        4
330
2A8
330
7D0
330
7CE
330
7CC
 92
        7
 72
     0
 73
     1
 93
        4
 10
874.7405703867219
 20
619.7873070070427
 10
856.2561047640985
 20
620.9919642795565
 10
856.2561047640983
 20
608.7582370824123
 10
871.66226953094
 20
607.754196781393
 97
        4
330
2AF
330
F8
330
7D1
330
7D0
 92
        7
 72
     0
 73
     1
 93
        5
 10
864.2478706722096
 20
598.5445568652932
 10
856.2561047640983
 20
593.1731600446612
 10
856.2561047640983
 20
589.2602982527866
 10
862.8142921581297
 20
579.5027807606319
 10
872.6176067844491
 20
586.0917491589711
 97
        5
330
7D2
330
F8
330
7D4
330
7D3
330
2AB
 75
     0
 76
     1
 47
0.2622834625717738
 98
        3
 10
886.58235591444
 20
610.9110359009905
 10
867.4221324211773
 20
613.2715872214756
 10
865.8473195103137
 20
590.1906425125372
1001
ACAD
1010
0.0
1020
0.0
1030
0.0
  0
LINE
  5
82B
102
{ACAD_REACTORS
330
916
102
}
330
1F
100
AcDbEntity
  8
0
100
AcDbLine
 10
861.0351061473174
 20
566.1876406880293
 30
0.0
 11
869.9350245121491
 21
552.8283288026626
 31
0.0
  0
LINE
  5
82D
102
{ACAD_REACTORS
330
916
102
}
330
1F
100
AcDbEntity
  8
0
100
AcDbLine
 10
877.3121620950631
 20
565.035244749079
 30
0.0
 11
880.6769227254097
 21
559.9845369967441
 31
0.0
  0
LINE
  5
82E
102
{ACAD_REACTORS
330
916
102
}
330
1F
100
AcDbEntity
  8
0
100
AcDbLine
 10
879.6713042199796
 20
566.6068954825115
 30
0.0
 11
877.3121620950631
 21
565.035244749079
 31
0.0
  0
LINE
  5
82F
102
{ACAD_REACTORS
330
916
102
}
330
1F
100
AcDbEntity
  8
0
100
AcDbLine
 10
879.6713042199796
 20
566.6068954825115
 30
0.0
 11
881.1018315449747
 21
564.459588067798
 31
0.0
  0
LINE
  5
830
102
{ACAD_REACTORS
330
916
102
}
330
1F
100
AcDbEntity
  8
0
100
AcDbLine
 10
880.6769227254097
 20
559.984536996744
 30
0.0
 11
869.9350245121491
 21
552.8283288026626
 31
0.0
  0
LINE
  5
832
102
{ACAD_REACTORS
330
916
102
}
330
1F
100
AcDbEntity
  8
0
100
AcDbLine
 10
889.3381648015955
 20
571.4312599953964
 30
0.0
 11
885.0468427538126
 21
568.5723989829289
 31
0.0
  0
LINE
  5
833
102
{ACAD_REACTORS
330
916
102
}
330
1F
100
AcDbEntity
  8
0
100
AcDbLine
 10
885.0468427538126
 20
568.5723989829288
 30
0.0
 11
885.7318844889233
 21
567.5441102033377
 31
0.0
  0
LINE
  5
834
102
{ACAD_REACTORS
330
916
102
}
330
1F
100
AcDbEntity
  8
0
100
AcDbLine
 10
884.3413955456677
 20
578.9317106931159
 30
0.0
 11
889.3381648015955
 21
571.4312599953962
 31
0.0
  0
LINE
  5
835
102
{ACAD_REACTORS
330
916
102
}
330
1F
100
AcDbEntity
  8
0
100
AcDbLine
 10
884.3413955456679
 20
578.9317106931161
 30
0.0
 11
875.4200205539365
 21
572.9883275451091
 31
0.0
  0
LINE
  5
836
102
{ACAD_REACTORS
330
916
102
}
330
1F
100
AcDbEntity
  8
0
100
AcDbLine
 10
874.1660376239327
 20
574.8706312218537
 30
0.0
 11
875.4200205539365
 21
572.9883275451091
 31
0.0
  0
LINE
  5
837
102
{ACAD_REACTORS
330
916
102
}
330
1F
100
AcDbEntity
  8
0
100
AcDbLine
 10
885.7318844889235
 20
567.5441102033377
 30
0.0
 11
881.1018315449747
 21
564.459588067798
 31
0.0
  0
LINE
  5
838
102
{ACAD_REACTORS
330
916
102
}
330
1F
100
AcDbEntity
  8
0
100
AcDbLine
 10
879.6713042199797
 20
566.6068954825115
 30
0.0
 11
880.3031659879749
 21
565.658433026896
 31
0.0
  0
LINE
  5
87C
102
{ACAD_REACTORS
330
916
102
}
330
1F
100
AcDbEntity
  8
0
100
AcDbLine
 10
988.5849859227661
 20
585.386306193983
 30
0.0
 11
1000.356501477619
 21
571.8653836489331
 31
0.0
  0
LINE
  5
87E
102
{ACAD_REACTORS
330
916
102
}
330
1F
100
AcDbEntity
  8
0
100
AcDbLine
 10
989.9425495890374
 20
562.7988427945288
 30
0.0
 11
1000.356501477619
 21
571.8653836489331
 31
0.0
  0
LINE
  5
87F
102
{ACAD_REACTORS
330
916
330
C65
102
}
330
1F
100
AcDbEntity
  8
0
100
AcDbLine
 10
978.1710340341843
 20
576.3197653395785
 30
0.0
 11
988.5849859227661
 21
585.3863061939829
 31
0.0
  0
LINE
  5
880
102
{ACAD_REACTORS
330
916
102
}
330
1F
100
AcDbEntity
  8
0
100
AcDbLine
 10
978.1710340341843
 20
576.3197653395787
 30
0.0
 11
989.9425495890378
 21
562.7988427945287
 31
0.0
  0
LINE
  5
8C3
102
{ACAD_REACTORS
330
916
102
}
330
1F
100
AcDbEntity
  8
0
100
AcDbLine
 10
980.9718843212962
 20
562.9430641083064
 30
0.0
 11
972.4936204621469
 21
568.1419617425117
 31
0.0
  0
LINE
  5
8C4
102
{ACAD_REACTORS
330
916
102
}
330
1F
100
AcDbEntity
  8
0
100
AcDbLine
 10
972.4936204621469
 20
568.1419617425117
 30
0.0
 11
969.0682132511046
 21
562.5558724975205
 31
0.0
  0
LINE
  5
8C5
102
{ACAD_REACTORS
330
916
102
}
330
1F
100
AcDbEntity
  8
0
100
AcDbLine
 10
974.9558582878799
 20
558.9455503417995
 30
0.0
 11
969.0682132511048
 21
562.5558724975205
 31
0.0
  0
LINE
  5
8C6
102
{ACAD_REACTORS
330
916
102
}
330
1F
100
AcDbEntity
  8
0
100
AcDbLine
 10
974.9558582878799
 20
558.9455503417995
 30
0.0
 11
971.8866929847449
 21
553.9404136574141
 31
0.0
  0
LINE
  5
8C7
102
{ACAD_REACTORS
330
916
102
}
330
1F
100
AcDbEntity
  8
0
100
AcDbLine
 10
975.3042402019302
 20
551.8447631283216
 30
0.0
 11
971.8866929847447
 21
553.9404136574143
 31
0.0
  0
LINE
  5
8C8
102
{ACAD_REACTORS
330
916
102
}
330
1F
100
AcDbEntity
  8
0
100
AcDbLine
 10
977.76048317083
 20
555.8503576711912
 30
0.0
 11
975.3042402019302
 21
551.8447631283215
 31
0.0
  0
LINE
  5
8C9
102
{ACAD_REACTORS
330
916
102
}
330
1F
100
AcDbEntity
  8
0
100
AcDbLine
 10
980.9718843212966
 20
562.9430641083062
 30
0.0
 11
984.4818448301358
 21
562.4690799467799
 31
0.0
  0
LINE
  5
8CA
102
{ACAD_REACTORS
330
916
102
}
330
1F
100
AcDbEntity
  8
0
100
AcDbLine
 10
983.4836874625279
 20
555.0774976402556
 30
0.0
 11
984.4818448301358
 21
562.4690799467799
 31
0.0
  0
LINE
  5
8CB
102
{ACAD_REACTORS
330
916
102
}
330
1F
100
AcDbEntity
  8
0
100
AcDbLine
 10
977.7604831708298
 20
555.8503576711912
 30
0.0
 11
983.4836874625279
 21
555.0774976402554
 31
0.0
  0
HATCH
  5
916
330
1F
100
AcDbEntity
  8
Srafy
100
AcDbHatch
 10
0.0
 20
0.0
 30
0.0
210
0.0
220
0.0
230
1.0
  2
SOLID
 70
     1
 71
     1
 91
        3
 92
        7
 72
     0
 73
     1
 93
        4
 10
988.5849859227661
 20
585.386306193983
 10
978.1710340341845
 20
576.3197653395785
 10
989.9425495890374
 20
562.7988427945289
 10
1000.356501477619
 20
571.8653836489331
 97
        4
330
87F
330
880
330
87E
330
87C
 92
        7
 72
     0
 73
     1
 93
        9
 10
984.4818448301356
 20
562.4690799467799
 10
980.9718843212962
 20
562.9430641083062
 10
972.4936204621469
 20
568.1419617425117
 10
969.0682132511046
 20
562.5558724975205
 10
974.9558582878799
 20
558.9455503417995
 10
971.886692984745
 20
553.940413657414
 10
975.3042402019303
 20
551.8447631283216
 10
977.76048317083
 20
555.8503576711911
 10
983.4836874625279
 20
555.0774976402554
 97
        9
330
8C9
330
8C3
330
8C4
330
8C5
330
8C6
330
8C7
330
8C8
330
8CB
330
8CA
 92
        7
 72
     0
 73
     1
 93
       13
 10
884.3413955456677
 20
578.9317106931161
 10
875.4200205539365
 20
572.9883275451091
 10
874.1660376239323
 20
574.8706312218537
 10
861.0649972857551
 20
566.1427722943395
 10
869.9350245121491
 20
552.8283288026626
 10
880.6769227254097
 20
559.9845369967441
 10
877.3121620950632
 20
565.035244749079
 10
879.6713042199797
 20
566.6068954825117
 10
880.3031659879749
 20
565.658433026896
 10
881.1018315449747
 20
564.459588067798
 10
885.7318844889235
 20
567.5441102033375
 10
885.0468427538126
 20
568.5723989829288
 10
889.3381648015955
 20
571.4312599953963
 97
       13
330
835
330
836
330
29D
330
82B
330
830
330
82D
330
82E
330
838
330
82F
330
837
330
833
330
832
330
834
 75
     0
 76
     1
 47
0.184195291335072
 98
        3
 10
988.5228379886799
 20
572.0412323702338
 10
977.2789834814407
 20
561.3579048109041
 10
884.0102991624153
 20
572.0412323702338
1001
ACAD
1010
0.0
1020
0.0
1030
0.0
  0
LINE
  5
959
102
{ACAD_REACTORS
330
9D3
102
}
330
1F
100
AcDbEntity
  8
0
100
AcDbLine
 10
1002.829574783933
 20
618.0432428258206
 30
0.0
 11
1005.806581726997
 21
626.0818198928169
 31
0.0
  0
LINE
  5
95A
102
{ACAD_REACTORS
330
9D3
102
}
330
1F
100
AcDbEntity
  8
0
100
AcDbLine
 10
1002.829574783933
 20
618.0432428258206
 30
0.0
 11
992.9206972368582
 21
621.7128969212855
 31
0.0
  0
LINE
  5
95B
102
{ACAD_REACTORS
330
9D3
102
}
330
1F
100
AcDbEntity
  8
0
100
AcDbLine
 10
992.9206972368584
 20
621.7128969212855
 30
0.0
 11
998.2779748758648
 21
636.1787312287224
 31
0.0
  0
LINE
  5
95C
102
{ACAD_REACTORS
330
9D3
102
}
330
1F
100
AcDbEntity
  8
0
100
AcDbLine
 10
1007.967780736059
 20
632.590208150282
 30
0.0
 11
998.277974875865
 21
636.1787312287223
 31
0.0
  0
LINE
  5
95D
102
{ACAD_REACTORS
330
9D3
102
}
330
1F
100
AcDbEntity
  8
0
100
AcDbLine
 10
1007.967780736059
 20
632.5902081502821
 30
0.0
 11
1009.592422335922
 21
636.9770997351936
 31
0.0
  0
LINE
  5
95E
102
{ACAD_REACTORS
330
9D3
102
}
330
1F
100
AcDbEntity
  8
0
100
AcDbLine
 10
1059.432398318671
 20
620.8011694512585
 30
0.0
 11
1020.335732379499
 21
635.2802302329763
 31
0.0
  0
LINE
  5
95F
102
{ACAD_REACTORS
330
9D3
102
}
330
1F
100
AcDbEntity
  8
0
100
AcDbLine
 10
1053.937885115982
 20
605.9647687742798
 30
0.0
 11
1059.432398318671
 21
620.8011694512585
 31
0.0
  0
LINE
  5
961
102
{ACAD_REACTORS
330
9D3
102
}
330
1F
100
AcDbEntity
  8
0
100
AcDbLine
 10
1053.937885115982
 20
605.9647687742798
 30
0.0
 11
1014.841219176811
 21
620.4438295559976
 31
0.0
  0
LINE
  5
962
102
{ACAD_REACTORS
330
9D3
102
}
330
1F
100
AcDbEntity
  8
0
100
AcDbLine
 10
1015.587695870512
 20
622.4594817011872
 30
0.0
 11
1005.806581726998
 21
626.081819892817
 31
0.0
  0
LINE
  5
963
102
{ACAD_REACTORS
330
9D3
102
}
330
1F
100
AcDbEntity
  8
0
100
AcDbLine
 10
1014.841219176811
 20
620.4438295559976
 30
0.0
 11
1020.335732379499
 21
635.2802302329763
 31
0.0
  0
LINE
  5
964
102
{ACAD_REACTORS
330
9D3
102
}
330
1F
100
AcDbEntity
  8
0
100
AcDbLine
 10
1019.592608166317
 20
633.2736305265392
 30
0.0
 11
1009.592422335922
 21
636.9770997351936
 31
0.0
  0
LINE
  5
985
102
{ACAD_REACTORS
330
9D3
102
}
330
1F
100
AcDbEntity
  8
0
100
AcDbLine
 10
999.2691259389376
 20
603.7269301824523
 30
0.0
 11
1021.398923164631
 21
580.598345092449
 31
0.0
  0
LINE
  5
986
102
{ACAD_REACTORS
330
9D3
102
}
330
1F
100
AcDbEntity
  8
0
100
AcDbLine
 10
999.2691259389376
 20
603.7269301824526
 30
0.0
 11
1003.826107196125
 21
608.0871221609249
 31
0.0
  0
LINE
  5
987
102
{ACAD_REACTORS
330
9D3
102
}
330
1F
100
AcDbEntity
  8
0
100
AcDbLine
 10
1003.826107196125
 20
608.0871221609249
 30
0.0
 11
1022.14324967489
 21
588.9432690065026
 31
0.0
  0
LINE
  5
988
102
{ACAD_REACTORS
330
9D3
102
}
330
1F
100
AcDbEntity
  8
0
100
AcDbLine
 10
1021.398923164631
 20
580.5983450924494
 30
0.0
 11
1037.341171545893
 21
573.5750048068349
 31
0.0
  0
LINE
  5
9A0
102
{ACAD_REACTORS
330
9D3
102
}
330
1F
100
AcDbEntity
  8
0
100
AcDbLine
 10
1037.341171545893
 20
573.5750048068349
 30
0.0
 11
1049.906783242486
 21
602.0976300226313
 31
0.0
  0
LINE
  5
9A1
102
{ACAD_REACTORS
330
9D3
102
}
330
1F
100
AcDbEntity
  8
0
100
AcDbLine
 10
1028.05660241206
 20
586.338147852398
 30
0.0
 11
1037.42243028285
 21
607.5975982193571
 31
0.0
  0
LINE
  5
9A2
102
{ACAD_REACTORS
330
9D3
102
}
330
1F
100
AcDbEntity
  8
0
100
AcDbLine
 10
1022.14324967489
 20
588.9432690065025
 30
0.0
 11
1028.05660241206
 21
586.338147852398
 31
0.0
  0
LINE
  5
9A3
102
{ACAD_REACTORS
330
9D3
102
}
330
1F
100
AcDbEntity
  8
0
100
AcDbLine
 10
1037.42243028285
 20
607.5975982193571
 30
0.0
 11
1049.906783242486
 21
602.0976300226313
 31
0.0
  0
HATCH
  5
9D3
330
1F
100
AcDbEntity
  8
Srafy
100
AcDbHatch
 10
0.0
 20
0.0
 30
0.0
210
0.0
220
0.0
230
1.0
  2
SOLID
 70
     1
 71
     1
 91
        3
 92
        7
 72
     0
 73
     1
 93
        4
 10
1020.335732379499
 20
635.2802302329763
 10
1014.841219176811
 20
620.4438295559977
 10
1053.937885115982
 20
605.9647687742798
 10
1059.432398318671
 20
620.8011694512582
 97
        4
330
963
330
961
330
95F
330
95E
 92
        7
 72
     0
 73
     1
 93
        8
 10
1019.592608166317
 20
633.2736305265392
 10
1009.592422335922
 20
636.9770997351936
 10
1007.967780736059
 20
632.5902081502822
 10
998.2779748758646
 20
636.1787312287224
 10
992.9206972368584
 20
621.7128969212855
 10
1002.829574783934
 20
618.0432428258206
 10
1005.806581726997
 20
626.0818198928169
 10
1015.587695870512
 20
622.4594817011872
 97
        8
330
964
330
95D
330
95C
330
95B
330
95A
330
959
330
962
330
963
 92
        7
 72
     0
 73
     1
 93
        8
 10
1003.826107196125
 20
608.0871221609249
 10
999.2691259389376
 20
603.7269301824525
 10
1021.39892316463
 20
580.5983450924492
 10
1037.341171545893
 20
573.5750048068352
 10
1049.906783242486
 20
602.0976300226313
 10
1037.42243028285
 20
607.5975982193569
 10
1028.05660241206
 20
586.338147852398
 10
1022.14324967489
 20
588.9432690065028
 97
        8
330
986
330
985
330
988
330
9A0
330
9A3
330
9A1
330
9A2
330
987
 75
     0
 76
     1
 47
0.1568563554514268
 98
        3
 10
1025.027894190626
 20
622.8809990810081
 10
1008.232405641038
 20
628.5278271680858
 10
1015.766829226681
 20
592.6077216188688
1001
ACAD
1010
0.0
1020
0.0
1030
0.0
  0
LINE
  5
9EE
102
{ACAD_REACTORS
330
A38
102
}
330
1F
100
AcDbEntity
  8
0
100
AcDbLine
 10
1048.145066086398
 20
566.9115010030005
 30
0.0
 11
1041.925661456974
 21
554.8174248672902
 31
0.0
  0
LINE
  5
9EF
102
{ACAD_REACTORS
330
A38
102
}
330
1F
100
AcDbEntity
  8
0
100
AcDbLine
 10
1041.925661456974
 20
554.8174248672902
 30
0.0
 11
1049.307173005283
 21
551.0214666989646
 31
0.0
  0
LINE
  5
9F0
102
{ACAD_REACTORS
330
A38
102
}
330
1F
100
AcDbEntity
  8
0
100
AcDbLine
 10
1055.526577634707
 20
563.1155428346747
 30
0.0
 11
1049.307173005283
 21
551.0214666989646
 31
0.0
  0
LINE
  5
9F1
102
{ACAD_REACTORS
330
A38
102
}
330
1F
100
AcDbEntity
  8
0
100
AcDbLine
 10
1048.145066086398
 20
566.9115010030005
 30
0.0
 11
1055.526577634707
 21
563.1155428346748
 31
0.0
  0
LINE
  5
A08
102
{ACAD_REACTORS
330
A38
102
}
330
1F
100
AcDbEntity
  8
0
100
AcDbLine
 10
1073.627607818213
 20
538.583528657797
 30
0.0
 11
1054.587939984296
 21
546.7013840699955
 31
0.0
  0
LINE
  5
A09
102
{ACAD_REACTORS
330
A38
102
}
330
1F
100
AcDbEntity
  8
0
100
AcDbLine
 10
1056.070010138892
 20
550.1774404934284
 30
0.0
 11
1054.587939984296
 21
546.7013840699955
 31
0.0
  0
LINE
  5
A0A
102
{ACAD_REACTORS
330
A38
102
}
330
1F
100
AcDbEntity
  8
0
100
AcDbLine
 10
1067.875562216024
 20
553.7748961687944
 30
0.0
 11
1063.279622668429
 21
542.9955513877252
 31
0.0
  0
LINE
  5
A0B
102
{ACAD_REACTORS
330
A38
102
}
330
1F
100
AcDbEntity
  8
0
100
AcDbLine
 10
1064.761692823025
 20
546.4716078111579
 30
0.0
 11
1056.070010138892
 21
550.1774404934283
 31
0.0
  0
LINE
  5
A0C
102
{ACAD_REACTORS
330
A38
102
}
330
1F
100
AcDbEntity
  8
0
100
AcDbLine
 10
1080.48695722744
 20
555.3048059835691
 30
0.0
 11
1073.399119582582
 21
538.6809481336209
 31
0.0
  0
LINE
  5
A0D
102
{ACAD_REACTORS
330
A38
102
}
330
1F
100
AcDbEntity
  8
0
100
AcDbLine
 10
1080.48695722744
 20
555.3048059835693
 30
0.0
 11
1065.098140975665
 21
561.8660646350599
 31
0.0
  0
LINE
  5
A0E
102
{ACAD_REACTORS
330
A38
102
}
330
1F
100
AcDbEntity
  8
0
100
AcDbLine
 10
1067.875562216023
 20
553.7748961687944
 30
0.0
 11
1062.606242878401
 21
556.0215515661808
 31
0.0
  0
LINE
  5
A0F
102
{ACAD_REACTORS
330
A38
102
}
330
1F
100
AcDbEntity
  8
0
100
AcDbLine
 10
1065.098140975665
 20
561.86606463506
 30
0.0
 11
1062.606242878401
 21
556.021551566181
 31
0.0
  0
HATCH
  5
A38
330
1F
100
AcDbEntity
  8
Srafy
100
AcDbHatch
 10
0.0
 20
0.0
 30
0.0
210
0.0
220
0.0
230
1.0
  2
SOLID
 70
     1
 71
     1
 91
        3
 92
        7
 72
     0
 73
     1
 93
        4
 10
1055.526577634707
 20
563.1155428346748
 10
1048.145066086398
 20
566.9115010030005
 10
1041.925661456974
 20
554.8174248672902
 10
1049.307173005283
 20
551.0214666989646
 97
        4
330
9F1
330
9EE
330
9EF
330
9F0
 92
        7
 72
     0
 73
     1
 93
        6
 10
1080.48695722744
 20
555.3048059835694
 10
1065.098140975665
 20
561.86606463506
 10
1062.606242878401
 20
556.021551566181
 10
1067.875562216024
 20
553.7748961687943
 10
1063.279622668429
 20
542.9955513877253
 10
1073.399119582582
 20
538.6809481336211
 97
        6
330
A0D
330
A0F
330
A0E
330
A0A
330
A08
330
A0C
 92
        7
 72
     0
 73
     1
 93
        4
 10
1056.070010138892
 20
550.1774404934284
 10
1054.587939984296
 20
546.7013840699957
 10
1063.279622668429
 20
542.9955513877253
 10
1064.761692823025
 20
546.4716078111579
 97
        4
330
A09
330
A08
330
A0A
330
A0B
 75
     0
 76
     1
 47
0.1144568509350094
 98
        3
 10
1047.791776182825
 20
558.4045157944905
 10
1073.104616623501
 20
549.4768823603709
 10
1062.567144535702
 20
546.729917053152
1001
ACAD
1010
0.0
1020
0.0
1030
0.0
  0
LINE
  5
A4F
102
{ACAD_REACTORS
330
A7E
102
}
330
1F
100
AcDbEntity
  8
0
100
AcDbLine
 10
1002.083204912513
 20
544.732429407791
 30
0.0
 11
987.6290512490712
 21
553.2288698050106
 31
0.0
  0
LINE
  5
A50
102
{ACAD_REACTORS
330
A7E
102
}
330
1F
100
AcDbEntity
  8
0
100
AcDbLine
 10
1002.083204912513
 20
544.732429407791
 30
0.0
 11
982.2847568359016
 21
511.0512879628811
 31
0.0
  0
LINE
  5
A51
102
{ACAD_REACTORS
330
A7E
102
}
330
1F
100
AcDbEntity
  8
0
100
AcDbLine
 10
987.6290512490712
 20
553.2288698050106
 30
0.0
 11
982.7018622065462
 21
544.8467304360593
 31
0.0
  0
LINE
  5
A52
102
{ACAD_REACTORS
330
A7E
102
}
330
1F
100
AcDbEntity
  8
0
100
AcDbLine
 10
982.7018622065462
 20
544.8467304360593
 30
0.0
 11
975.0642368905502
 21
549.336279238753
 31
0.0
  0
LINE
  5
A53
102
{ACAD_REACTORS
330
A7E
102
}
330
1F
100
AcDbEntity
  8
0
100
AcDbLine
 10
981.8147683657148
 20
537.0260398739024
 30
0.0
 11
971.4198221926499
 21
543.1363969828861
 31
0.0
  0
LINE
  5
A54
102
{ACAD_REACTORS
330
A7E
102
}
330
1F
100
AcDbEntity
  8
0
100
AcDbLine
 10
975.0642368905502
 20
549.336279238753
 30
0.0
 11
971.4198221926501
 21
543.136396982886
 31
0.0
  0
LINE
  5
A55
102
{ACAD_REACTORS
330
A7E
102
}
330
1F
100
AcDbEntity
  8
0
100
AcDbLine
 10
981.814768365715
 20
537.0260398739024
 30
0.0
 11
976.9209477215884
 21
528.7006668606728
 31
0.0
  0
LINE
  5
A56
102
{ACAD_REACTORS
330
A7E
102
}
330
1F
100
AcDbEntity
  8
0
100
AcDbLine
 10
988.6177805279606
 20
521.8250347697432
 30
0.0
 11
976.9209477215884
 21
528.7006668606728
 31
0.0
  0
LINE
  5
A57
102
{ACAD_REACTORS
330
A7E
102
}
330
1F
100
AcDbEntity
  8
0
100
AcDbLine
 10
979.0953021106306
 20
527.42253789518
 30
0.0
 11
969.4719542124014
 21
511.0512879628811
 31
0.0
  0
HATCH
  5
A7E
330
1F
100
AcDbEntity
  8
Srafy
100
AcDbHatch
 10
0.0
 20
0.0
 30
0.0
210
0.0
220
0.0
230
1.0
  2
SOLID
 70
     1
 71
     1
 91
        2
 92
        7
 72
     0
 73
     1
 93
        8
 10
1002.083204912513
 20
544.7324294077912
 10
987.6290512490712
 20
553.2288698050107
 10
982.7018622065464
 20
544.8467304360593
 10
975.0642368905502
 20
549.3362792387529
 10
971.4198221926501
 20
543.136396982886
 10
981.8147683657148
 20
537.0260398739023
 10
976.9209477215884
 20
528.7006668606728
 10
988.6177805279608
 20
521.8250347697432
 97
        8
330
A4F
330
A51
330
A52
330
A54
330
A53
330
A55
330
A56
330
A50
 92
        7
 72
     0
 73
     1
 93
        4
 10
988.6177805279608
 20
521.8250347697432
 10
979.0953021106307
 20
527.42253789518
 10
969.4719542124014
 20
511.0512879628811
 10
982.2847568359014
 20
511.0512879628811
 97
        4
330
A56
330
A57
330
F8
330
A50
 75
     0
 76
     1
 47
0.1442689662803483
 98
        2
 10
994.7134920086615
 20
539.5597153889013
 10
980.5651417794683
 20
521.3818263940296
1001
ACAD
1010
0.0
1020
0.0
1030
0.0
  0
LINE
  5
AC1
102
{ACAD_REACTORS
330
B09
102
}
330
1F
100
AcDbEntity
  8
0
100
AcDbLine
 10
1033.259174066702
 20
518.6875079100905
 30
0.0
 11
1043.480883439338
 21
528.4406763816816
 31
0.0
  0
LINE
  5
AC2
102
{ACAD_REACTORS
330
B09
102
}
330
1F
100
AcDbEntity
  8
0
100
AcDbLine
 10
1027.172124697245
 20
525.0669783122174
 30
0.0
 11
1033.259174066702
 21
518.6875079100904
 31
0.0
  0
LINE
  5
AC3
102
{ACAD_REACTORS
330
B09
102
}
330
1F
100
AcDbEntity
  8
0
100
AcDbLine
 10
1027.172124697245
 20
525.0669783122174
 30
0.0
 11
1023.667678298719
 21
518.1110072562082
 31
0.0
  0
LINE
  5
AC4
102
{ACAD_REACTORS
330
B09
102
}
330
1F
100
AcDbEntity
  8
0
100
AcDbLine
 10
1019.412442655859
 20
520.2548122121846
 30
0.0
 11
1014.775669853109
 21
511.0512879628811
 31
0.0
  0
LINE
  5
AC5
102
{ACAD_REACTORS
330
B09
102
}
330
1F
100
AcDbEntity
  8
0
100
AcDbLine
 10
1019.412442655859
 20
520.2548122121846
 30
0.0
 11
1023.667678298719
 21
518.1110072562082
 31
0.0
  0
LINE
  5
AC6
102
{ACAD_REACTORS
330
B09
102
}
330
1F
100
AcDbEntity
  8
0
100
AcDbLine
 10
1033.259174066702
 20
518.6875079100905
 30
0.0
 11
1045.77561449777
 21
511.0512879628812
 31
0.0
  0
LINE
  5
ADD
102
{ACAD_REACTORS
330
B09
102
}
330
1F
100
AcDbEntity
  8
0
100
AcDbLine
 10
1000.284817143723
 20
518.2783380375805
 30
0.0
 11
1014.62977934976
 21
511.0512879628811
 31
0.0
  0
HATCH
  5
B09
330
1F
100
AcDbEntity
  8
Srafy
100
AcDbHatch
 10
0.0
 20
0.0
 30
0.0
210
0.0
220
0.0
230
1.0
  2
SOLID
 70
     1
 71
     1
 91
        3
 92
        7
 72
     0
 73
     1
 93
        3
 10
1000.284817143723
 20
518.2783380375802
 10
996.6438000373667
 20
511.0512879628811
 10
1014.62977934976
 20
511.0512879628812
 97
        3
330
7B8
330
F8
330
ADD
 92
        7
 72
     0
 73
     1
 93
       10
 10
1027.172124697245
 20
525.0669783122174
 10
1033.259174066702
 20
518.6875079100906
 10
1043.480883439338
 20
528.4406763816817
 10
1024.063063221469
 20
548.7913260700658
 10
1015.53816623189
 20
548.5546906190095
 10
1000.284817143723
 20
518.2783380375804
 10
1014.62977934976
 20
511.051287962881
 10
1014.775669853109
 20
511.051287962881
 10
1019.412442655859
 20
520.2548122121844
 10
1023.667678298719
 20
518.1110072562083
 97
       10
330
AC2
330
AC1
330
7B6
330
7B5
330
7B8
330
ADD
330
F8
330
AC4
330
AC5
330
AC3
 92
        7
 72
     0
 73
     1
 93
        4
 10
1043.480883439338
 20
528.4406763816815
 10
1033.259174066702
 20
518.6875079100905
 10
1045.77561449777
 20
511.051287962881
 10
1071.98363031951
 20
511.051287962881
 97
        4
330
AC1
330
AC6
330
F8
330
7B7
 75
     0
 76
     1
 47
0.110133169120856
 98
        3
 10
1004.504358269061
 20
513.801854213884
 10
1016.51735602175
 20
522.5023732528919
 10
1046.935593247841
 20
521.4010422010654
1001
ACAD
1010
0.0
1020
0.0
1030
0.0
  0
LINE
  5
B36
102
{ACAD_REACTORS
330
BB3
102
}
330
1F
100
AcDbEntity
  8
0
100
AcDbLine
 10
933.6321141435014
 20
619.2759563055719
 30
0.0
 11
911.3079480623646
 21
625.1489589080001
 31
0.0
  0
LINE
  5
B37
102
{ACAD_REACTORS
330
BB3
102
}
330
1F
100
AcDbEntity
  8
0
100
AcDbLine
 10
935.4153294911698
 20
626.0542260041615
 30
0.0
 11
933.6321141435014
 21
619.2759563055719
 31
0.0
  0
LINE
  5
B38
102
{ACAD_REACTORS
330
BB3
330
BFF
102
}
330
1F
100
AcDbEntity
  8
0
100
AcDbLine
 10
935.4153294911698
 20
626.0542260041615
 30
0.0
 11
912.8051076230155
 21
632.002483663172
 31
0.0
  0
LINE
  5
B39
102
{ACAD_REACTORS
330
BB3
102
}
330
1F
100
AcDbEntity
  8
0
100
AcDbLine
 10
912.8051076230155
 20
632.0024836631721
 30
0.0
 11
912.1838463659068
 21
629.6409761988752
 31
0.0
  0
LINE
  5
B3C
102
{ACAD_REACTORS
330
BB3
102
}
330
1F
100
AcDbEntity
  8
0
100
AcDbLine
 10
890.1462928430095
 20
650.0741222230368
 30
0.0
 11
903.6053644173021
 21
647.2426345196408
 31
0.0
  0
LINE
  5
B3D
102
{ACAD_REACTORS
330
BB3
102
}
330
1F
100
AcDbEntity
  8
0
100
AcDbLine
 10
886.1719626405902
 20
631.1827123856971
 30
0.0
 11
900.5834533210666
 21
628.1508569992293
 31
0.0
  0
LINE
  5
B3E
102
{ACAD_REACTORS
330
BB3
102
}
330
1F
100
AcDbEntity
  8
0
100
AcDbLine
 10
890.1462928430095
 20
650.0741222230368
 30
0.0
 11
886.1719626405902
 21
631.1827123856971
 31
0.0
  0
LINE
  5
B55
102
{ACAD_REACTORS
330
BB3
102
}
330
1F
100
AcDbEntity
  8
0
100
AcDbLine
 10
886.1719626405902
 20
631.1827123856971
 30
0.0
 11
869.0750650071132
 21
634.7207579211286
 31
0.0
  0
LINE
  5
B56
102
{ACAD_REACTORS
330
BB3
102
}
330
1F
100
AcDbEntity
  8
0
100
AcDbLine
 10
869.0750650071132
 20
634.7207579211286
 30
0.0
 11
856.2561047640983
 21
635.2754849429689
 31
0.0
  0
LINE
  5
B58
102
{ACAD_REACTORS
330
BB3
102
}
330
1F
100
AcDbEntity
  8
0
100
AcDbLine
 10
871.380005418595
 20
645.8589215970132
 30
0.0
 11
869.0750650071132
 21
634.7207579211286
 31
0.0
  0
LINE
  5
B59
102
{ACAD_REACTORS
330
BB3
102
}
330
1F
100
AcDbEntity
  8
0
100
AcDbLine
 10
888.5135861927889
 20
642.3132848233922
 30
0.0
 11
871.3800054185952
 21
645.8589215970132
 31
0.0
  0
LINE
  5
B70
102
{ACAD_REACTORS
330
BB3
102
}
330
1F
100
AcDbEntity
  8
0
100
AcDbLine
 10
869.7044860802535
 20
649.2657924967488
 30
0.0
 11
856.2689973338382
 21
649.8471991411239
 31
0.0
  0
LINE
  5
B71
102
{ACAD_REACTORS
330
BB3
102
}
330
1F
100
AcDbEntity
  8
0
100
AcDbLine
 10
869.7044860802535
 20
649.2657924967488
 30
0.0
 11
869.0750650071132
 21
634.7207579211286
 31
0.0
  0
HATCH
  5
BB3
330
1F
100
AcDbEntity
  8
Srafy
100
AcDbHatch
 10
0.0
 20
0.0
 30
0.0
210
0.0
220
0.0
230
1.0
  2
SOLID
 70
     1
 71
     1
 91
        4
 92
        7
 72
     0
 73
     1
 93
        5
 10
935.4153294911698
 20
626.0542260041615
 10
912.8051076230155
 20
632.002483663172
 10
912.1838463659065
 20
629.6409761988744
 10
911.2424513403604
 20
625.1661896711733
 10
933.6321141435016
 20
619.2759563055719
 97
        5
330
B38
330
B39
330
629
330
B36
330
B37
 92
        7
 72
     0
 73
     1
 93
        4
 10
903.6053644173019
 20
647.2426345196407
 10
890.1462928430099
 20
650.0741222230369
 10
886.1719626405902
 20
631.182712385697
 10
899.6310342148824
 20
628.3512246823013
 97
        4
330
B3C
330
B3E
330
B3D
330
646
 92
        7
 72
     0
 73
     1
 93
        4
 10
888.5135861927887
 20
642.3132848233921
 10
871.380005418595
 20
645.8589215970134
 10
869.0750650071132
 20
634.7207579211284
 10
886.1719626405903
 20
631.1827123856971
 97
        4
330
B59
330
B58
330
B55
330
B3E
 92
        7
 72
     0
 73
     1
 93
        4
 10
869.7044860802535
 20
649.2657924967489
 10
856.2561047640985
 20
649.8477570535192
 10
856.2561047640986
 20
635.2754849429689
 10
869.0750650071132
 20
634.7207579211286
 97
        4
330
B70
330
F8
330
B56
330
B71
 75
     0
 76
     1
 47
0.2321719209681132
 98
        4
 10
925.177682803012
 20
625.1243152886335
 10
892.8829819602624
 20
637.1972567774304
 10
876.8517960893877
 20
638.3581152971227
 10
866.1643424626067
 20
642.0728656116108
1001
ACAD
1010
0.0
1020
0.0
1030
0.0
  0
LINE
  5
BE0
102
{ACAD_REACTORS
330
BFF
102
}
330
1F
100
AcDbEntity
  8
0
100
AcDbLine
 10
901.4695619507126
 20
660.8062478381238
 30
0.0
 11
935.6112901025046
 21
626.2478237766977
 31
0.0
  0
LINE
  5
BE2
102
{ACAD_REACTORS
330
BFF
102
}
330
1F
100
AcDbEntity
  8
0
100
AcDbLine
 10
898.4383353529002
 20
662.7725663480608
 30
0.0
 11
935.2678328358226
 21
625.4935690364597
 31
0.0
  0
LINE
  5
BE3
102
{ACAD_REACTORS
330
BFF
102
}
330
1F
100
AcDbEntity
  8
0
100
AcDbLine
 10
935.0603787075284
 20
625.703555118799
 30
0.0
 11
935.6112901025046
 21
626.2478237766977
 31
0.0
  0
HATCH
  5
BFF
330
1F
100
AcDbEntity
  8
Srafy
100
AcDbHatch
 10
0.0
 20
0.0
 30
0.0
210
0.0
220
0.0
230
1.0
  2
SOLID
 70
     1
 71
     1
 91
        1
 92
        7
 72
     0
 73
     1
 93
        5
 10
934.4676208248484
 20
626.303547544031
 10
935.4153294911698
 20
626.0542260041617
 10
935.6112901025046
 20
626.2478237766976
 10
901.4695619507126
 20
660.8062478381238
 10
900.9105647995591
 20
660.2701636221373
 97
        5
330
486
330
BE2
330
B38
330
BE3
330
BE0
 75
     0
 76
     1
 47
0.1129970988432697
 98
        1
 10
914.8803889924916
 20
646.5480600868462
1001
ACAD
1010
0.0
1020
0.0
1030
0.0
  0
LINE
  5
C16
102
{ACAD_REACTORS
330
C65
102
}
330
1F
100
AcDbEntity
  8
0
100
AcDbLine
 10
988.5849859227661
 20
585.3863061939829
 30
0.0
 11
982.7837179714315
 21
591.2797152450687
 31
0.0
  0
LINE
  5
C17
102
{ACAD_REACTORS
330
C65
102
}
330
1F
100
AcDbEntity
  8
0
100
AcDbLine
 10
982.7837179714315
 20
591.2797152450687
 30
0.0
 11
976.3293779704918
 21
595.5123853837759
 31
0.0
  0
LINE
  5
C18
102
{ACAD_REACTORS
330
C65
102
}
330
1F
100
AcDbEntity
  8
0
100
AcDbLine
 10
976.3293779704918
 20
595.5123853837759
 30
0.0
 11
968.0597566545225
 21
597.729497909941
 31
0.0
  0
LINE
  5
C19
102
{ACAD_REACTORS
330
C65
102
}
330
1F
100
AcDbEntity
  8
0
100
AcDbLine
 10
968.0597566545225
 20
597.729497909941
 30
0.0
 11
929.1320130931536
 21
607.2026161459949
 31
0.0
  0
LINE
  5
C1A
102
{ACAD_REACTORS
330
C65
102
}
330
1F
100
AcDbEntity
  8
0
100
AcDbLine
 10
929.1320130931536
 20
607.2026161459949
 30
0.0
 11
921.4674843420381
 21
606.7995046234862
 31
0.0
  0
LINE
  5
C1B
102
{ACAD_REACTORS
330
C65
102
}
330
1F
100
AcDbEntity
  8
0
100
AcDbLine
 10
921.4674843420381
 20
606.7995046234862
 30
0.0
 11
916.8397642330887
 21
604.1019066062081
 31
0.0
  0
LINE
  5
C22
102
{ACAD_REACTORS
330
C65
102
}
330
1F
100
AcDbEntity
  8
0
100
AcDbLine
 10
916.8397642330889
 20
604.1019066062082
 30
0.0
 11
917.2297564115037
 21
603.4328763671493
 31
0.0
  0
LINE
  5
C4D
102
{ACAD_REACTORS
330
C65
102
}
330
1F
100
AcDbEntity
  8
0
100
AcDbLine
 10
987.9998283340023
 20
584.8768593248641
 30
0.0
 11
982.2898706330819
 21
590.6775078517405
 31
0.0
  0
LINE
  5
C4E
102
{ACAD_REACTORS
330
C65
102
}
330
1F
100
AcDbEntity
  8
0
100
AcDbLine
 10
982.2898706330819
 20
590.6775078517405
 30
0.0
 11
976.0087113364257
 21
594.7966083930112
 31
0.0
  0
LINE
  5
C4F
102
{ACAD_REACTORS
330
C65
102
}
330
1F
100
AcDbEntity
  8
0
100
AcDbLine
 10
976.0087113364257
 20
594.7966083930112
 30
0.0
 11
967.8592196597941
 21
596.981513769905
 31
0.0
  0
LINE
  5
C50
102
{ACAD_REACTORS
330
C65
102
}
330
1F
100
AcDbEntity
  8
0
100
AcDbLine
 10
967.8766492056935
 20
596.9770571998625
 30
0.0
 11
929.0592638552077
 21
606.4233196183332
 31
0.0
  0
LINE
  5
C51
102
{ACAD_REACTORS
330
C65
102
}
330
1F
100
AcDbEntity
  8
0
100
AcDbLine
 10
929.0592638552077
 20
606.4233196183332
 30
0.0
 11
921.6954469807205
 21
606.036023865634
 31
0.0
  0
LINE
  5
C52
102
{ACAD_REACTORS
330
C65
102
}
330
1F
100
AcDbEntity
  8
0
100
AcDbLine
 10
921.6954469807205
 20
606.036023865634
 30
0.0
 11
917.2297564115037
 21
603.4328763671493
 31
0.0
  0
HATCH
  5
C65
330
1F
100
AcDbEntity
  8
Srafy
100
AcDbHatch
 10
0.0
 20
0.0
 30
0.0
210
0.0
220
0.0
230
1.0
  2
SOLID
 70
     1
 71
     1
 91
        1
 92
        7
 72
     0
 73
     1
 93
       14
 10
982.7837179714311
 20
591.2797152450689
 10
976.3293779704918
 20
595.512385383776
 10
968.0597566545214
 20
597.7294979099411
 10
929.1320130931532
 20
607.2026161459949
 10
921.4674843420382
 20
606.7995046234864
 10
916.8397642330889
 20
604.1019066062082
 10
917.2297564115037
 20
603.4328763671494
 10
921.6954469807211
 20
606.0360238656341
 10
929.0592638552075
 20
606.4233196183332
 10
967.8679085480808
 20
596.9791842505316
 10
976.0087113364258
 20
594.796608393011
 10
982.2898706330818
 20
590.6775078517409
 10
987.9998283340022
 20
584.8768593248641
 10
988.5849859227661
 20
585.3863061939827
 97
       14
330
C17
330
C18
330
C19
330
C1A
330
C1B
330
C22
330
C52
330
C51
330
C50
330
C4F
330
C4E
330
C4D
330
87F
330
C16
 75
     0
 76
     1
 47
0.0439212519062876
 98
        1
 10
982.2259956198745
 20
591.0963691522112
1001
ACAD
1010
0.0
1020
0.0
1030
0.0
  0
ENDSEC
  0
SECTION
  2
OBJECTS
  0
DICTIONARY
  5
C
330
0
100
AcDbDictionary
281
     1
  3
ACAD_COLOR
350
6B
  3
ACAD_GROUP
350
D
  3
ACAD_IMAGE_DICT
350
F4
  3
ACAD_IMAGE_VARS
350
F5
  3
ACAD_LAYOUT
350
1A
  3
ACAD_MATERIAL
350
6A
  3
ACAD_MLINESTYLE
350
17
  3
ACAD_PLOTSETTINGS
350
19
  3
ACAD_PLOTSTYLENAME
350
E
  3
ACAD_TABLESTYLE
350
7E
  3
ACAD_VISUALSTYLE
350
113
  3
AcDbVariableDictionary
350
5E
  3
DWGPROPS
350
CAD
  0
DICTIONARY
  5
792
330
8
100
AcDbDictionary
280
     1
281
     1
  0
DICTIONARY
  5
128
330
2
100
AcDbDictionary
280
     1
281
     1
  3
ACAD_LAYERFILTERS
360
C94
  3
ACLYDICTIONARY
360
C93
  0
DICTIONARY
  5
1CE
330
1F
100
AcDbDictionary
280
     1
281
     1
  3
ACAD_SORTENTS
360
1CF
  0
IMAGEDEF_REACTOR
  5
F7
330
F8
100
AcDbRasterImageDefReactor
 90
        2
330
F8
  0
DICTIONARY
  5
6B
102
{ACAD_REACTORS
330
C
102
}
330
C
100
AcDbDictionary
281
     1
  0
DICTIONARY
  5
D
102
{ACAD_REACTORS
330
C
102
}
330
C
100
AcDbDictionary
281
     1
  0
DICTIONARY
  5
F4
102
{ACAD_REACTORS
330
C
102
}
330
C
100
AcDbDictionary
281
     1
  3
krizovatka
350
F6
  0
RASTERVARIABLES
  5
F5
102
{ACAD_REACTORS
330
C
102
}
330
C
100
AcDbRasterVariables
 90
        0
 70
     1
 71
     1
 72
     1
  0
DICTIONARY
  5
1A
102
{ACAD_REACTORS
330
C
102
}
330
C
100
AcDbDictionary
281
     1
  3
Model
350
22
  3
Rozvržení1
350
D3
  3
Rozvržení2
350
D7
  0
DICTIONARY
  5
6A
102
{ACAD_REACTORS
330
C
102
}
330
C
100
AcDbDictionary
281
     1
  3
ByBlock
350
111
  3
ByLayer
350
110
  3
Global
350
112
  0
DICTIONARY
  5
17
102
{ACAD_REACTORS
330
C
102
}
330
C
100
AcDbDictionary
281
     1
  3
Standard
350
18
  0
DICTIONARY
  5
19
102
{ACAD_REACTORS
330
C
102
}
330
C
100
AcDbDictionary
281
     1
  0
ACDBDICTIONARYWDFLT
  5
E
102
{ACAD_REACTORS
330
C
102
}
330
C
100
AcDbDictionary
281
     1
  3
Normal
350
F
100
AcDbDictionaryWithDefault
340
F
  0
DICTIONARY
  5
7E
102
{ACAD_REACTORS
330
C
102
}
330
C
100
AcDbDictionary
281
     1
  3
Standard
350
7F
  0
DICTIONARY
  5
113
102
{ACAD_REACTORS
330
C
102
}
330
C
100
AcDbDictionary
281
     1
  3
2dWireframe
350
119
  3
3D Hidden
350
11B
  3
3dWireframe
350
11A
  3
Basic
350
118
  3
Brighten
350
11F
  3
ColorChange
350
123
  3
Conceptual
350
11C
  3
Dim
350
11E
  3
Facepattern
350
122
  3
Flat
350
114
  3
FlatWithEdges
350
115
  3
Gouraud
350
116
  3
GouraudWithEdges
350
117
  3
Linepattern
350
121
  3
Realistic
350
11D
  3
Thicken
350
120
  0
DICTIONARY
  5
5E
102
{ACAD_REACTORS
330
C
102
}
330
C
100
AcDbDictionary
281
     1
  3
CTABLESTYLE
350
84
  3
DIMASSOC
350
5F
  3
HIDETEXT
350
63
  3
INDEXCTL
350
7A9
  3
PROJECTNAME
350
102
  3
SORTENTS
350
7A8
  0
XRECORD
  5
CAD
102
{ACAD_REACTORS
330
C
102
}
330
C
100
AcDbXrecord
280
     1
  1
DWGPROPS COOKIE
  2

  3

  4

  6

  7

  8
Honza
  9

300
=
301
=
302
=
303
=
304
=
305
=
306
=
307
=
308
=
309
=
 40
0.0994370138888889
 41
2454570.942113322
 42
2454580.086180914
  1

 90
        0
  0
DICTIONARY
  5
C94
102
{ACAD_REACTORS
330
128
102
}
330
128
100
AcDbDictionary
281
     1
  0
DICTIONARY
  5
C93
102
{ACAD_REACTORS
330
128
102
}
330
128
100
AcDbDictionary
281
     1
1001
ACAD
1000
<All
  0
SORTENTSTABLE
  5
1CF
102
{ACAD_REACTORS
330
1CE
102
}
330
1CE
100
AcDbSortentsTable
330
1F
331
75E
  5
628
331
527
  5
529
331
400
  5
41B
331
87C
  5
839
331
9A1
  5
9BB
331
9F0
  5
A09
331
309
  5
30B
331
1CB
  5
1CC
331
438
  5
439
331
361
  5
363
331
7B6
  5
7B6
331
20B
  5
20B
331
988
  5
9A2
331
82E
  5
82E
331
959
  5
95C
331
836
  5
837
331
961
  5
964
331
A7E
  5
AC2
331
A08
  5
A0B
331
AC5
  5
ADD
331
A4F
  5
A52
331
A57
  5
AC1
331
488
  5
4A3
331
2CA
  5
2CA
331
3C1
  5
3C2
331
1A4
  5
1A5
331
2EA
  5
2EC
331
528
  5
52A
331
C4D
  5
C18
331
C16
  5
C17
331
7D0
  5
7D0
331
9A2
  5
9EE
331
ADD
  5
B36
331
9F1
  5
A0A
331
30A
  5
30C
331
1CC
  5
1CD
331
439
  5
43A
331
2AB
  5
2A0
331
7B7
  5
7B7
331
628
  5
629
331
204
  5
204
331
20C
  5
20C
331
3BA
  5
3BC
331
C65
  5
87E
331
82F
  5
82F
331
95A
  5
95D
331
837
  5
830
331
962
  5
985
331
A38
  5
9F0
331
A09
  5
A0C
331
B3C
  5
B3E
331
AC6
  5
AF4
331
A50
  5
A51
331
3C2
  5
3E3
331
521
  5
524
331
176
  5
177
331
529
  5
52B
331
BFF
  5
487
331
C4E
  5
C1A
331
C17
  5
C19
331
87E
  5
87C
331
7D1
  5
7D1
331
9A3
  5
9EF
331
43A
  5
486
331
363
  5
364
331
BE0
  5
BE3
331
7B8
  5
7CB
331
629
  5
62A
331
205
  5
205
331
383
  5
384
331
19E
  5
19F
331
F8
  5
F8
331
830
  5
82B
331
95B
  5
95E
331
963
  5
986
331
A0A
  5
A0D
331
9D3
  5
95B
331
B3D
  5
B55
331
A51
  5
A53
331
1A6
  5
1A7
331
4A2
  5
521
331
3E3
  5
3FD
331
2EC
  5
307
331
52A
  5
52C
331
29D
  5
29B
331
C4F
  5
C1C
331
838
  5
838
331
7D2
  5
7D2
331
B55
  5
B57
331
41B
  5
41D
331
30C
  5
361
331
364
  5
365
331
C18
  5
C1B
331
206
  5
206
331
384
  5
3BA
331
3BC
  5
3BD
331
95C
  5
95F
331
964
  5
987
331
A0B
  5
A0E
331
B36
  5
B38
331
B3E
  5
B56
331
A52
  5
A54
331
1A7
  5
1CA
331
4A3
  5
523
331
523
  5
525
331
52B
  5
52D
331
C50
  5
C1E
331
7D3
  5
7D3
331
B56
  5
B58
331
365
  5
366
331
C19
  5
C1D
331
BE2
  5
BFA
331
207
  5
207
331
3BD
  5
3BE
331
BB3
  5
BE2
331
916
  5
29A
331
832
  5
832
331
95D
  5
961
331
A0C
  5
A0F
331
B37
  5
B39
331
AC1
  5
AC3
331
A53
  5
A55
331
2E6
  5
2E7
331
524
  5
527
331
3FD
  5
3FE
331
52C
  5
52E
331
306
  5
308
331
C51
  5
C20
331
7CC
  5
7CC
331
7D4
  5
7D4
331
985
  5
988
331
41D
  5
41E
331
5DC
  5
95A
331
366
  5
380
331
2AF
  5
2AD
331
C1A
  5
C1F
331
BE3
  5
C16
331
208
  5
208
331
C22
  5
C53
331
82B
  5
7EB
331
833
  5
833
331
95E
  5
962
331
7FC
  5
8F8
331
A0D
  5
A26
331
B38
  5
B3C
331
AC2
  5
AC4
331
A54
  5
A56
331
2E7
  5
2EA
331
525
  5
528
331
3FE
  5
3FF
331
52D
  5
561
331
307
  5
309
331
986
  5
9A0
331
B09
  5
B37
331
9EE
  5
9F1
331
B58
  5
B70
331
5B5
  5
959
331
41E
  5
438
331
2A8
  5
29C
331
C1B
  5
C21
331
486
  5
488
331
209
  5
209
331
645
  5
646
331
3BF
  5
3BF
331
834
  5
834
331
95F
  5
963
331
B70
  5
B9E
331
A0E
  5
A4F
331
B39
  5
B3D
331
AC3
  5
AC5
331
A55
  5
A57
331
16B
  5
16C
331
3FF
  5
400
331
52E
  5
5CF
331
7CE
  5
7CD
331
987
  5
9A1
331
9A0
  5
9A3
331
9EF
  5
A08
331
B59
  5
B71
331
308
  5
30A
331
1CA
  5
1CB
331
1EA
  5
1EA
331
193
  5
194
331
7B5
  5
7B5
331
380
  5
383
331
487
  5
4A2
331
20A
  5
20A
331
646
  5
75A
331
82D
  5
82D
331
835
  5
835
331
B71
  5
BE0
331
A0F
  5
A50
331
AC4
  5
AC6
331
A56
  5
A6E
  0
IMAGEDEF
  5
F6
102
{ACAD_REACTORS
330
F4
330
F7
102
}
330
F4
100
AcDbRasterImageDef
 90
        0
  1
C:\Documents and Settings\Jirka\Plocha\krizovatka.JPG
 10
468.0
 20
361.0
 11
0.2116666666666666
 21
0.2116666666666666
280
     1
281
     5
  0
LAYOUT
  5
22
102
{ACAD_XDICTIONARY
360
CAE
102
}
102
{ACAD_REACTORS
330
1A
102
}
330
1A
100
AcDbPlotSettings
  1

  2
none_device
  4
ISO_A4_(210.00_x_297.00_MM)
  6

 40
7.5
 41
20.0
 42
7.5
 43
20.0
 44
210.0
 45
297.0
 46
11.54999923706054
 47
-13.65000009536743
 48
0.0
 49
0.0
140
0.0
141
0.0
142
1.0
143
8.704084754739808
 70
 11952
 72
     1
 73
     0
 74
     0
  7

 75
     0
147
0.1148885871608098
148
0.0
149
0.0
100
AcDbLayout
  1
Model
 70
     1
 71
     0
 10
0.0
 20
0.0
 11
12.0
 21
9.0
 12
0.0
 22
0.0
 32
0.0
 14
0.0
 24
0.0
 34
0.0
 15
0.0
 25
0.0
 35
0.0
146
0.0
 13
0.0
 23
0.0
 33
0.0
 16
1.0
 26
0.0
 36
0.0
 17
0.0
 27
1.0
 37
0.0
 76
     0
330
1F
331
106
1001
ACAD_PSEXT
1000
None
1000
None
1000
Not applicable
1000
The layout will not be plotted unless a new plotter configuration name is selected.
1070
     0
  0
LAYOUT
  5
D3
102
{ACAD_XDICTIONARY
360
CB2
102
}
102
{ACAD_REACTORS
330
1A
102
}
330
1A
100
AcDbPlotSettings
  1

  2
C:\Documents and Settings\basas\Application Data\Autodesk\AutoCAD 2005\R16.1\enu\plotters\Default Windows System Printer.pc3
  4

  6

 40
0.0
 41
0.0
 42
0.0
 43
0.0
 44
0.0
 45
0.0
 46
0.0
 47
0.0
 48
0.0
 49
0.0
140
0.0
141
0.0
142
1.0
143
1.0
 70
   688
 72
     0
 73
     0
 74
     5
  7

 75
    16
147
1.0
148
0.0
149
0.0
100
AcDbLayout
  1
Rozvržení1
 70
     1
 71
     1
 10
0.0
 20
0.0
 11
12.0
 21
9.0
 12
0.0
 22
0.0
 32
0.0
 14
0.0
 24
0.0
 34
0.0
 15
0.0
 25
0.0
 35
0.0
146
0.0
 13
0.0
 23
0.0
 33
0.0
 16
1.0
 26
0.0
 36
0.0
 17
0.0
 27
1.0
 37
0.0
 76
     0
330
D2
  0
LAYOUT
  5
D7
102
{ACAD_XDICTIONARY
360
CB4
102
}
102
{ACAD_REACTORS
330
1A
102
}
330
1A
100
AcDbPlotSettings
  1

  2
C:\Documents and Settings\basas\Application Data\Autodesk\AutoCAD 2005\R16.1\enu\plotters\Default Windows System Printer.pc3
  4

  6

 40
0.0
 41
0.0
 42
0.0
 43
0.0
 44
0.0
 45
0.0
 46
0.0
 47
0.0
 48
0.0
 49
0.0
140
0.0
141
0.0
142
1.0
143
1.0
 70
   688
 72
     0
 73
     0
 74
     5
  7

 75
    16
147
1.0
148
0.0
149
0.0
100
AcDbLayout
  1
Rozvržení2
 70
     1
 71
     2
 10
0.0
 20
0.0
 11
12.0
 21
9.0
 12
0.0
 22
0.0
 32
0.0
 14
0.0
 24
0.0
 34
0.0
 15
0.0
 25
0.0
 35
0.0
146
0.0
 13
0.0
 23
0.0
 33
0.0
 16
1.0
 26
0.0
 36
0.0
 17
0.0
 27
1.0
 37
0.0
 76
     0
330
D6
  0
MATERIAL
  5
111
102
{ACAD_XDICTIONARY
360
CB8
102
}
102
{ACAD_REACTORS
330
6A
102
}
330
6A
100
AcDbMaterial
  1
ByBlock
  0
MATERIAL
  5
110
102
{ACAD_XDICTIONARY
360
CB6
102
}
102
{ACAD_REACTORS
330
6A
102
}
330
6A
100
AcDbMaterial
  1
ByLayer
  0
MATERIAL
  5
112
102
{ACAD_XDICTIONARY
360
CBA
102
}
102
{ACAD_REACTORS
330
6A
102
}
330
6A
100
AcDbMaterial
  1
Global
  0
MLINESTYLE
  5
18
102
{ACAD_REACTORS
330
17
102
}
330
17
100
AcDbMlineStyle
  2
STANDARD
 70
     0
  3

 62
   256
 51
90.0
 52
90.0
 71
     2
 49
0.5
 62
   256
  6
BYLAYER
 49
-0.5
 62
   256
  6
BYLAYER
  0
ACDBPLACEHOLDER
  5
F
102
{ACAD_REACTORS
330
E
102
}
330
E
  0
TABLESTYLE
  5
7F
102
{ACAD_XDICTIONARY
360
CB0
102
}
102
{ACAD_REACTORS
330
7E
102
}
330
7E
100
AcDbTableStyle
  3
Standard
 70
     0
 71
     0
 40
1.5
 41
1.5
280
     0
281
     0
  7
Standard
140
4.5
170
     2
 62
     0
 63
     7
283
     0
274
    -2
284
     1
 64
     0
275
    -2
285
     1
 65
     0
276
    -2
286
     1
 66
     0
277
    -2
287
     1
 67
     0
278
    -2
288
     1
 68
     0
279
    -2
289
     1
 69
     0
  7
Standard
140
6.0
170
     5
 62
     0
 63
     7
283
     0
274
    -2
284
     1
 64
     0
275
    -2
285
     1
 65
     0
276
    -2
286
     1
 66
     0
277
    -2
287
     1
 67
     0
278
    -2
288
     1
 68
     0
279
    -2
289
     1
 69
     0
  7
Standard
140
4.5
170
     5
 62
     0
 63
     7
283
     0
274
    -2
284
     1
 64
     0
275
    -2
285
     1
 65
     0
276
    -2
286
     1
 66
     0
277
    -2
287
     1
 67
     0
278
    -2
288
     1
 68
     0
279
    -2
289
     1
 69
     0
  0
VISUALSTYLE
  5
119
102
{ACAD_REACTORS
330
113
102
}
330
113
100
AcDbVisualStyle
  2
2dWireframe
 70
     4
 71
     0
 72
     2
 73
     0
 90
        0
 40
-0.6
 41
-30.0
 62
     5
 63
     7
 74
     1
 91
        4
 64
     7
 65
   257
 75
     1
175
     1
 42
1.0
 92
        0
 66
   257
 43
1.0
 76
     1
 77
     6
 78
     2
 67
     7
 79
     5
170
     0
171
     0
290
     0
174
     0
 93
        1
 44
0.0
173
     0
291
     0
 45
0.0
1001
ACAD
1000
AcDbSavedByObjectVersion
1070
     0
  0
VISUALSTYLE
  5
11B
102
{ACAD_REACTORS
330
113
102
}
330
113
100
AcDbVisualStyle
  2
3D Hidden
 70
     6
 71
     1
 72
     2
 73
     2
 90
        0
 40
-0.6
 41
-30.0
 62
     5
 63
     7
 74
     2
 91
        2
 64
     7
 65
   257
 75
     2
175
     1
 42
40.0
 92
        0
 66
   257
 43
1.0
 76
     1
 77
     6
 78
     2
 67
     7
 79
     3
170
     0
171
     0
290
     0
174
     0
 93
        1
 44
0.0
173
     0
291
     0
 45
0.0
1001
ACAD
1000
AcDbSavedByObjectVersion
1070
     0
  0
VISUALSTYLE
  5
11A
102
{ACAD_REACTORS
330
113
102
}
330
113
100
AcDbVisualStyle
  2
3dWireframe
 70
     5
 71
     0
 72
     2
 73
     0
 90
        0
 40
-0.6
 41
-30.0
 62
     5
 63
     7
 74
     1
 91
        4
 64
     7
 65
   257
 75
     1
175
     1
 42
1.0
 92
        0
 66
   257
 43
1.0
 76
     1
 77
     6
 78
     2
 67
     7
 79
     5
170
     0
171
     0
290
     0
174
     0
 93
        1
 44
0.0
173
     0
291
     0
 45
0.0
1001
ACAD
1000
AcDbSavedByObjectVersion
1070
     0
  0
VISUALSTYLE
  5
118
102
{ACAD_REACTORS
330
113
102
}
330
113
100
AcDbVisualStyle
  2
Basic
 70
     7
 71
     1
 72
     0
 73
     1
 90
        0
 40
-0.6
 41
-30.0
 62
     5
 63
     7
 74
     0
 91
        4
 64
     7
 65
   257
 75
     1
175
     1
 42
1.0
 92
        8
 66
     7
 43
1.0
 76
     1
 77
     6
 78
     2
 67
     7
 79
     5
170
     0
171
     0
290
     0
174
     0
 93
        1
 44
0.0
173
     0
291
     1
 45
0.0
1001
ACAD
1000
AcDbSavedByObjectVersion
1070
     0
  0
VISUALSTYLE
  5
11F
102
{ACAD_REACTORS
330
113
102
}
330
113
100
AcDbVisualStyle
  2
Brighten
 70
    12
 71
     2
 72
     2
 73
     0
 90
        0
 40
-0.6
 41
-30.0
 62
     5
 63
     7
 74
     1
 91
        4
 64
     7
 65
   257
 75
     1
175
     1
 42
1.0
 92
        8
 66
     7
 43
1.0
 76
     1
 77
     6
 78
     2
 67
     7
 79
     5
170
     0
171
     0
290
     0
174
     0
 93
        1
 44
50.0
173
     0
291
     1
 45
0.0
1001
ACAD
1000
AcDbSavedByObjectVersion
1070
     0
  0
VISUALSTYLE
  5
123
102
{ACAD_REACTORS
330
113
102
}
330
113
100
AcDbVisualStyle
  2
ColorChange
 70
    16
 71
     2
 72
     2
 73
     3
 90
        0
 40
-0.6
 41
-30.0
 62
     5
 63
     8
 74
     1
 91
        4
 64
     7
 65
   257
 75
     1
175
     1
 42
1.0
 92
        8
 66
     8
 43
1.0
 76
     1
 77
     6
 78
     2
 67
     7
 79
     5
170
     0
171
     0
290
     0
174
     0
 93
        1
 44
0.0
173
     0
291
     1
 45
0.0
1001
ACAD
1000
AcDbSavedByObjectVersion
1070
     0
  0
VISUALSTYLE
  5
11C
102
{ACAD_REACTORS
330
113
102
}
330
113
100
AcDbVisualStyle
  2
Conceptual
 70
     9
 71
     3
 72
     2
 73
     0
 90
        0
 40
-0.6
 41
-30.0
 62
     5
 63
     7
 74
     2
 91
        2
 64
     7
 65
   257
 75
     1
175
     1
 42
40.0
 92
        8
 66
     7
 43
1.0
 76
     1
 77
     6
 78
     2
 67
     7
 79
     3
170
     0
171
     0
290
     0
174
     0
 93
        1
 44
0.0
173
     0
291
     0
 45
0.0
1001
ACAD
1000
AcDbSavedByObjectVersion
1070
     0
  0
VISUALSTYLE
  5
11E
102
{ACAD_REACTORS
330
113
102
}
330
113
100
AcDbVisualStyle
  2
Dim
 70
    11
 71
     2
 72
     2
 73
     0
 90
        0
 40
-0.6
 41
-30.0
 62
     5
 63
     7
 74
     1
 91
        4
 64
     7
 65
   257
 75
     1
175
     1
 42
1.0
 92
        8
 66
     7
 43
1.0
 76
     1
 77
     6
 78
     2
 67
     7
 79
     5
170
     0
171
     0
290
     0
174
     0
 93
        1
 44
-50.0
173
     0
291
     1
 45
0.0
1001
ACAD
1000
AcDbSavedByObjectVersion
1070
     0
  0
VISUALSTYLE
  5
122
102
{ACAD_REACTORS
330
113
102
}
330
113
100
AcDbVisualStyle
  2
Facepattern
 70
    15
 71
     2
 72
     2
 73
     0
 90
        0
 40
-0.6
 41
-30.0
 62
     5
 63
     7
 74
     1
 91
        4
 64
     7
 65
   257
 75
     1
175
     1
 42
1.0
 92
        8
 66
     7
 43
1.0
 76
     1
 77
     6
 78
     2
 67
     7
 79
     5
170
     0
171
     0
290
     0
174
     0
 93
        1
 44
0.0
173
     0
291
     1
 45
0.0
1001
ACAD
1000
AcDbSavedByObjectVersion
1070
     0
  0
VISUALSTYLE
  5
114
102
{ACAD_REACTORS
330
113
102
}
330
113
100
AcDbVisualStyle
  2
Flat
 70
     0
 71
     2
 72
     1
 73
     1
 90
        2
 40
-0.6
 41
30.0
 62
     5
 63
     7
 74
     0
 91
        4
 64
     7
 65
   257
 75
     1
175
     1
 42
1.0
 92
        8
 66
     7
 43
1.0
 76
     1
 77
     6
 78
     2
 67
     7
 79
     5
170
     0
171
     0
290
     0
174
     0
 93
       13
 44
0.0
173
     0
291
     1
 45
0.0
1001
ACAD
1000
AcDbSavedByObjectVersion
1070
     0
  0
VISUALSTYLE
  5
115
102
{ACAD_REACTORS
330
113
102
}
330
113
100
AcDbVisualStyle
  2
FlatWithEdges
 70
     1
 71
     2
 72
     1
 73
     1
 90
        2
 40
-0.6
 41
30.0
 62
     5
 63
     7
 74
     1
 91
        4
 64
     7
 65
   257
 75
     1
175
     1
 42
1.0
 92
        0
 66
   257
 43
1.0
 76
     1
 77
     6
 78
     2
 67
     7
 79
     5
170
     0
171
     0
290
     0
174
     0
 93
       13
 44
0.0
173
     0
291
     1
 45
0.0
1001
ACAD
1000
AcDbSavedByObjectVersion
1070
     0
  0
VISUALSTYLE
  5
116
102
{ACAD_REACTORS
330
113
102
}
330
113
100
AcDbVisualStyle
  2
Gouraud
 70
     2
 71
     2
 72
     2
 73
     1
 90
        2
 40
-0.6
 41
30.0
 62
     5
 63
     7
 74
     0
 91
        4
 64
     7
 65
   257
 75
     1
175
     1
 42
1.0
 92
        0
 66
     7
 43
1.0
 76
     1
 77
     6
 78
     2
 67
     7
 79
     5
170
     0
171
     0
290
     0
174
     0
 93
       13
 44
0.0
173
     0
291
     1
 45
0.0
1001
ACAD
1000
AcDbSavedByObjectVersion
1070
     0
  0
VISUALSTYLE
  5
117
102
{ACAD_REACTORS
330
113
102
}
330
113
100
AcDbVisualStyle
  2
GouraudWithEdges
 70
     3
 71
     2
 72
     2
 73
     1
 90
        2
 40
-0.6
 41
30.0
 62
     5
 63
     7
 74
     1
 91
        4
 64
     7
 65
   257
 75
     1
175
     1
 42
1.0
 92
        0
 66
   257
 43
1.0
 76
     1
 77
     6
 78
     2
 67
     7
 79
     5
170
     0
171
     0
290
     0
174
     0
 93
       13
 44
0.0
173
     0
291
     1
 45
0.0
1001
ACAD
1000
AcDbSavedByObjectVersion
1070
     0
  0
VISUALSTYLE
  5
121
102
{ACAD_REACTORS
330
113
102
}
330
113
100
AcDbVisualStyle
  2
Linepattern
 70
    14
 71
     2
 72
     2
 73
     0
 90
        0
 40
-0.6
 41
-30.0
 62
     5
 63
     7
 74
     1
 91
        4
 64
     7
 65
   257
 75
     7
175
     7
 42
1.0
 92
        8
 66
     7
 43
1.0
 76
     1
 77
     6
 78
     2
 67
     7
 79
     5
170
     0
171
     0
290
     0
174
     0
 93
        1
 44
0.0
173
     0
291
     1
 45
0.0
1001
ACAD
1000
AcDbSavedByObjectVersion
1070
     0
  0
VISUALSTYLE
  5
11D
102
{ACAD_REACTORS
330
113
102
}
330
113
100
AcDbVisualStyle
  2
Realistic
 70
     8
 71
     2
 72
     2
 73
     0
 90
        0
 40
-0.6
 41
-30.0
 62
     5
 63
     7
 74
     1
 91
        0
 64
     7
 65
   257
 75
     1
175
     1
 42
1.0
 92
        8
 66
     8
 43
1.0
 76
     1
 77
     6
 78
     2
 67
     7
 79
     5
170
     0
171
     0
290
     0
174
     0
 93
       13
 44
0.0
173
     0
291
     0
 45
0.0
1001
ACAD
1000
AcDbSavedByObjectVersion
1070
     0
  0
VISUALSTYLE
  5
120
102
{ACAD_REACTORS
330
113
102
}
330
113
100
AcDbVisualStyle
  2
Thicken
 70
    13
 71
     2
 72
     2
 73
     0
 90
        0
 40
-0.6
 41
-30.0
 62
     5
 63
     7
 74
     1
 91
        4
 64
     7
 65
   257
 75
     1
175
     1
 42
1.0
 92
       12
 66
     7
 43
1.0
 76
     1
 77
     6
 78
     2
 67
     7
 79
     5
170
     0
171
     0
290
     0
174
     0
 93
        1
 44
0.0
173
     0
291
     1
 45
0.0
1001
ACAD
1000
AcDbSavedByObjectVersion
1070
     0
  0
DICTIONARYVAR
  5
84
102
{ACAD_REACTORS
330
5E
102
}
330
5E
100
DictionaryVariables
280
     0
  1
STANDARD
  0
DICTIONARYVAR
  5
5F
102
{ACAD_REACTORS
330
5E
102
}
330
5E
100
DictionaryVariables
280
     0
  1
2
  0
DICTIONARYVAR
  5
63
102
{ACAD_REACTORS
330
5E
102
}
330
5E
100
DictionaryVariables
280
     0
  1
1
  0
DICTIONARYVAR
  5
7A9
102
{ACAD_REACTORS
330
5E
102
}
330
5E
100
DictionaryVariables
280
     0
  1
0
  0
DICTIONARYVAR
  5
102
102
{ACAD_REACTORS
330
5E
102
}
330
5E
100
DictionaryVariables
280
     0
  1

  0
DICTIONARYVAR
  5
7A8
102
{ACAD_REACTORS
330
5E
102
}
330
5E
100
DictionaryVariables
280
     0
  1
127
  0
DICTIONARY
  5
CAE
330
22
100
AcDbDictionary
280
     1
281
     1
  3
ACAD_XREC_ROUNDTRIP
360
CAF
  0
DICTIONARY
  5
CB2
330
D3
100
AcDbDictionary
280
     1
281
     1
  3
ACAD_XREC_ROUNDTRIP
360
CB3
  0
DICTIONARY
  5
CB4
330
D7
100
AcDbDictionary
280
     1
281
     1
  3
ACAD_XREC_ROUNDTRIP
360
CB5
  0
DICTIONARY
  5
CB8
330
111
100
AcDbDictionary
280
     1
281
     1
  3
ACAD_XREC_ROUNDTRIP
360
CB9
  0
DICTIONARY
  5
CB6
330
110
100
AcDbDictionary
280
     1
281
     1
  3
ACAD_XREC_ROUNDTRIP
360
CB7
  0
DICTIONARY
  5
CBA
330
112
100
AcDbDictionary
280
     1
281
     1
  3
ACAD_XREC_ROUNDTRIP
360
CBB
  0
DICTIONARY
  5
CB0
330
7F
100
AcDbDictionary
280
     1
281
     1
  3
ACAD_XREC_ROUNDTRIP
360
CB1
  0
XRECORD
  5
CAF
102
{ACAD_REACTORS
330
CAE
102
}
330
CAE
100
AcDbXrecord
280
     1
102
SHADEPLOT
 70
     0
102
SHADEPLOTRESLEVEL
 70
     2
102
SHADEPLOTCUSTOMDPI
 70
   300
  0
XRECORD
  5
CB3
102
{ACAD_REACTORS
330
CB2
102
}
330
CB2
100
AcDbXrecord
280
     1
102
SHADEPLOT
 70
     0
102
SHADEPLOTRESLEVEL
 70
     2
102
SHADEPLOTCUSTOMDPI
 70
   300
  0
XRECORD
  5
CB5
102
{ACAD_REACTORS
330
CB4
102
}
330
CB4
100
AcDbXrecord
280
     1
102
SHADEPLOT
 70
     0
102
SHADEPLOTRESLEVEL
 70
     2
102
SHADEPLOTCUSTOMDPI
 70
   300
  0
XRECORD
  5
CB9
102
{ACAD_REACTORS
330
CB8
102
}
330
CB8
100
AcDbXrecord
280
     1
102
MATERIAL
148
0.0
149
0.0
149
0.0
 93
        0
 94
       63
282
     0
 72
     1
 77
     1
171
     1
175
     1
179
     1
273
     0
  0
XRECORD
  5
CB7
102
{ACAD_REACTORS
330
CB6
102
}
330
CB6
100
AcDbXrecord
280
     1
102
MATERIAL
148
0.0
149
0.0
149
0.0
 93
        0
 94
       63
282
     0
 72
     1
 77
     1
171
     1
175
     1
179
     1
273
     0
  0
XRECORD
  5
CBB
102
{ACAD_REACTORS
330
CBA
102
}
330
CBA
100
AcDbXrecord
280
     1
102
MATERIAL
148
0.0
149
0.0
149
0.0
 93
        0
 94
       63
282
     0
 72
     1
 77
     1
171
     1
175
     1
179
     1
273
     0
  0
XRECORD
  5
CB1
102
{ACAD_REACTORS
330
CB0
102
}
330
CB0
100
AcDbXrecord
280
     1
102
ACAD_ROUNDTRIP_PRE2007_TABLESTYLE
 90
        4
 91
        0
  1

 92
        4
 93
        0
  2

 94
        4
 95
        0
  3

  0
ENDSEC
  0
EOF
